PrimaNota.ru - самый крупный в мире бесплатный архив песенных текстов, аккордов, табулатур и нот


Misc Soundtrack - Red Alert 3 - The Soviet March - аккорды и текст, видео

Регистрация Запомнить меня
Войти через:  Facebook Google Twitter Vk Yandex Mail.ru

Misc Soundtrack - Red Alert 3 - The Soviet March - аккорды и текст, видео

Печатать
Просмотров: 529
Red Alert 3 - The Soviet March
Misc Soundtrack
This is the tune the male voices sing, from the Soviet March by James Hannigan.


E|-----------------------|
B|-----------------------|
G|-----------------------|
D|-0-0---0-----0-2-2-1-2-|
A|-----4---0-------------|
E|-----------------------|

E|-------------------------|
B|-------------------------|
G|-------0-2-----0-2-2-0-2-|
D|-2-3-3-----3-------------|
A|-------------------------|
E|-------------------------|

E|-----------------------|
B|-----------------------|
G|-2-2-0-2-----2-3-3-2-0-|
D|---------0-------------|
A|-----------------------|
E|-----------------------|

E|-----------------------|
B|-----------------------|
G|-0-2---0---------0-2---|
D|-----3---2-2-4-4-----0-|
A|-----------------------|
E|-----------------------|
Добавлено: 17.09.2015
Другие материалы по этой песне:
  • Аккорды и текст

Страница создана 17.09.2015
http://primanota.ru/misc-soundtrack/red-alert-3-soviet-march-chords.htm
Привет, Гость.
Предлагаем пройти революционный курс по гитаре.
Подарок от PrimaNota.Ru, забирай!