PrimaNota.ru - самый крупный в мире бесплатный архив песенных текстов, аккордов, табулатур и нот


Misc Soundtrack - Disco Inferno - Overture - таба, видео

Регистрация Запомнить меня
Войти через:  Facebook Google Twitter Vk Yandex Mail.ru

Misc Soundtrack - Disco Inferno - Overture - таба, видео

Печатать
Просмотров: 110
-------------------------------------------------------------------------------
                             OVERTURE - Disco Inferno
-------------------------------------------------------------------------------
Tabbed by: Cait :)
E-mail:caitsullivan57@gmail.com

Tuning: STANDARD EADGBe

e|---------------------------------------------------------------------------|
B|-------------------6---5---------------------------------------------------|
G|-5-5-----------------6---6--------------------5-5-----5--------------------|
D|-----x6---3-----3-----------3-----3-5-6-8-10------x12----------------------|
A|-3-3--------4-3---------------4-3-------------3-3-----3--------------------|
E|---------------------------------------------------------------------------|

Добавлено: 06.06.2015
Другие материалы по этой песне:
  • Аккорды и текст

Страница создана 06.06.2015
http://primanota.ru/misc-soundtrack/disco-inferno-overture-chords.htm
Привет, Гость.
Предлагаем пройти революционный курс по гитаре.
Подарок от PrimaNota.Ru, забирай!