PrimaNota.ru - самый крупный в мире бесплатный архив песенных текстов, аккордов, табулатур и нот


Misc Soundtrack - Days Of Thunder - End Titles - таба, видео

Регистрация Запомнить меня
Войти через:  Facebook Google Twitter Vk Yandex Mail.ru

Misc Soundtrack - Days Of Thunder - End Titles - таба, видео

Печатать
Просмотров: 105
-------------------------------------------------------------------------------
                             Jeff Beck - End Titles(unused)Second Solo
-------------------------------------------------------------------------------
Tabbed by: Slade18
E-mail: slade18@wp.pl

Tuning: Standard 


  Hello everyone. This is my first tab. Jeff Beck recorded this solo in 1990 on Hans Zimmer's Days Of Thunder movie score.
Unfortunately in final this track was not used in end titles. I think this solo is one of the most 
beautiful guitar track ever recorded in history. I hope you enjoyed


Link to track: https://www.youtube.com/watch?v=fFXd7yTYkqo  solo start 1:54


e|---------------------------------------------------------------------------|
B|---10~~~~----------------------------------------8-------------------------|
G|-9----------5h7p5-7b~~~~---7br(7)p(5)----7br(7)b---7pb~~~~~~-(7)pb-(7)p5---|
D|---------------------------------------------------------------------------|
A|---------------------------------------------------------------------------|
E|---------------------------------------------------------------------------|

e|-------------------------------------------------------------------12------|
B|-----------------------------------------------------11br(11)p10------13---|
G|-5--7--7b--7~~~~-------------------------------5---------------------------|
D|------------------------------------/5------/7---7~~-----------------------|
A|-----------------5---------------------7-----------------------------------|
E|--------------------8/7---3---3/5/3----------------------------------------|

e|-15b~~(15)pb-(15)p12-15b---17--20br(20)17--15br(15)------------------------|
B|-----------------------------------------------------15br(15)-13----13-15--|
G|-----------------------------------------------------------------14--------|
D|---------------------------------------------------------------------------|
A|---------------------------------------------------------------------------|
E|---------------------------------------------------------------------------|

e|-12--------13-12-----20br(20)-20b-20~~---15p12-----12------------12--------|
B|----13--15-------13------------------15b-------15b----15p13---15----15~~~--|
G|---------------------------------------------------------------------------|
D|---------------------------------------------------------------------------|
A|---------------------------------------------------------------------------|
E|---------------------------------------------------------------------------|

e|---------------------------------------------------------------------------|
B|-13/12-12/10--10/8--8-8br(8)p5--8~~-----------5----------------------------|
G|------------------------------------------5-7---5-7---5--------------------|
D|-----------------------------------9b-7-------------7-----7---5------------|
A|--------------------------------------------------------7---7---7--3-------|
E|----------------------------------------------------------------------5----|

e|-------------------------^-----^-----^---------------------------15--------|
B|-----------------13---15--13-15-13-15-13----15br(15)-13-13--15/17----------|
G|-------------/12-----------------------------------------------------------|
D|---------------------------------------------------------------------------|
A|-3-5--3--------------------------------------------------------------------|
E|--------5~~----------------------------------------------------------------|

e|-------12--15-----^------------------15----22br---20-22-22b24--20-22-22b24-|
B|----13---------15---(15)------15-------------------------------------------|
G|-12------------------------------------------------------------------------|
D|---------------------------17-----17---------------------------------------|
A|---------------------------------------------------------------------------|
E|---------------------------------------------------------------------------|

e|-20-22---22b-22br--22-20---^-----------------------------------------------|
B|-----------------------------22-20h22--------------------------------------|
G|---------------------------------------------5-------------/5---5-7-5~~----|
D|-----------------------------------------/7--5-7---5+br-------7------------|
A|---------------------------------------------------------------------------|
E|---------------------------------------------------------------------------|

e|--15--15\12/17\15---15-22-22b-22-------------------------------------------|
B|---------------------------------------------------------------------------|
G|---------------------------------------------------------------------------|
D|-------------------------------------12br(12)p10-----12b--12pb--12pb--12pb-|
A|----------------------------------12-------------12------------------------|
E|---------------------------------------------------------------------------|


e|---------------------------------------------------------------------------|
B|---------------------------------------------------------------------------|
G|---------------------------------9-----------------------------12-12br-12b-|
D|--12pb--12pb-12br(12)p10----12b----12pb(12)p10-----10-10h12/14-------------|
A|-----------------------------------------------12--------------------------|
E|---------------------------------------------------------------------------|


************************************

| /   slide up
| \   slide down
| h   hammer-on
| p   pull-off
| ~   vibrato
| +   harmonic
| x   Mute note
| b   Bend
| pb  Pre-bend
| br  Bend release
| pbr Pre-bend release
| brb Bend release bend
| ^   tremolo
************************************
Добавлено: 06.06.2015
Другие материалы по этой песне:
  • Аккорды и текст

Страница создана 06.06.2015
http://primanota.ru/misc-soundtrack/days-of-thunder-end-titles-chords.htm
Привет, Гость.
Предлагаем пройти революционный курс по гитаре.
Подарок от PrimaNota.Ru, забирай!