PrimaNota.ru - самый крупный в мире бесплатный архив песенных текстов, аккордов, табулатур и нот


Misc Soundtrack - Kioku - таба

Регистрация Запомнить меня
Войти через:  Facebook Google Twitter Vk Yandex Mail.ru

Misc Soundtrack - Kioku - таба

Печатать
Просмотров: 123
-------------------------------------------------------------------------------
                             Kioku - Yosuga no Sora OST
-------------------------------------------------------------------------------
Tabbed by: turtaniumx

Tuning: E Standard

Intro:

E|--14----------------------19--|--12----------------------17--|
B|----------17------15------17--|----------15------14------17--|
G|------16------16------16--16--|------14------14------14--14--|
D|------------------------------|------------------------------|
A|------------------------------|------------------------------|
E|------------------------------|------------------------------|

E|--14----------------------12--|--12--------------------------|
B|----------17------15------12--|----------15------14------7---|
G|------16------16------16--14--|------14------14------14--9---|
D|------------------------------|--------------------------9---|
A|------------------------------|------------------------------|
E|------------------------------|------------------------------|

Middle Start:

E|-----------|-----------|-----------|--------|
B|-----------|-----------|-----------|--5--7--|
G|-----------|--------6--|-----6--7--|--------|
D|--5--7--9--|--7--9-----|--9--------|--------|
A|-----------|-----------|-----------|--------|
E|-----------|-----------|-----------|--------|

Middle:

E|------------------------------------------------5--7--5--|--------------5-------------|
B|---------------7-----------------------------------------|---------5/7----------------|
G|------------------6----7--6------------6--7--9-----------|-----------------6----------|
D|--9--7--7/9------------------7--7/9----------------------|--7/9---------------7--7/9--|
A|---------------------------------------------------------|----------------------------|
E|---------------------------------------------------------|----------------------------|


E|------------------------------------------------5--7--5--|--------------5-------------|-------------|
B|--7------------7-----------------------------5-----------|---------5/7----------------|-------------|
G|-----6------------6----7--6------------6--7--------------|-----------------6----------|-----6-------|
D|--------7/9------------------7--7/9----------------------|--7/9---------------7--7/9--|--7-----7/9--|
A|---------------------------------------------------------|----------------------------|-------------|
E|---------------------------------------------------------|----------------------------|-------------|

Solo:

E|--------------------------------------------------------------------------------|
B|------10--12----10--12--10-----------10-----------------------------------------|
G|--11--------------------------9--11--------------------9--11----11--9--11--9----|
D|-----------------------------------------11--12----12---------------------------|
A|--------------------------------------------------------------------------------|
E|--------------------------------------------------------------------------------|

E|---------------------------9---------------------------------9--10--12--14--|
B|---------------10--11--12-----12----10--12--10-----------10-----------------|
G|----9--11--12-------------------------------------9--11---------------------|
D|12--------------------------------------------------------------------------|
A|----------------------------------------------------------------------------|
E|----------------------------------------------------------------------------|


E|--12----------------------------------------------------14----12-------------------------|
B|------15--14----12--14--15----15--14--12--11--12--14--------------15--14----------10/12--|
G|--------------------------------------------------------------------------14--11---------|
D|-----------------------------------------------------------------------------------------|
A|-----------------------------------------------------------------------------------------|
E|-----------------------------------------------------------------------------------------|


************************************

| /   slide up
| \   slide down
| h   hammer-on
| p   pull-off
| ~   vibrato
| +   harmonic
| x   Mute note
| b   Bend
| pb  Pre-bend
| br  Bend release
| pbr Pre-bend release
| brb Bend release bend

************************************
Добавлено: 06.06.2015
Другие материалы по этой песне:
  • Аккорды и текст

Страница создана 06.06.2015
http://primanota.ru/misc-soundtrack/kioku-chords.htm
Привет, Гость.
Предлагаем пройти революционный курс по гитаре.
Подарок от PrimaNota.Ru, забирай!