PrimaNota.ru - самый крупный в мире бесплатный архив песенных текстов, аккордов, табулатур и нот


Misc Soundtrack - Bugs Tv Theme - таба, видео

Регистрация Запомнить меня
Войти через:  Facebook Google Twitter Vk Yandex Mail.ru

Misc Soundtrack - Bugs Tv Theme - таба, видео

Печатать
Просмотров: 86
BUGS TV THEME

Gavin Greenway

tabber - John Fennell

Chords for intro with appreggio stuff going on : Gm : Dm : Fm : Cm

e|---------------------------13-b-15---v--v-v-v---v-|
B|-13-b--15-v-v-v-v-v-v-v---------------------------|
G|--------------------------------------------------|
D|--------------------------------------------------|
A|--------------------------------------------------|
E|--------------------------------------------------|


e|------------------------------------------------------15v---|
B|-1313-15---1313-15-16-18-v-v-v-161516-vvvv-161516-18--------|
G|------------------------------------------------------------|
D|------------------------------------------------------------|
A|------------------------------------------------------------|
E|------------------------------------------------------------|


e|----15-16-vv-16-16--16b18r16-15--15h16p15/13----13v-v-15-v--|
B|-18------------------------------------------16-------------|
G|------------------------------------------------------------|
D|------------------------------------------------------------|
A|------------------------------------------------------------|
E|------------------------------------------------------------|


e|--------------------------------------------------|
B|--------------------------------------------------|
G|-17-17-17/18-15---17----17/18-17-15---------------|
D|---------------------18-------------18--16--15----|
A|------------------------------------------------18|
E|--------------------------------------------------|


e|-16---13-14---13----------------------------------|
B|-----------------16----14--13h14p13---------------|
G|-------------------------------------15-v-v-v-----|
D|--------------------------------------------------|
A|--------------------------------------------------|
E|--------------------------------------------------|
Добавлено: 06.06.2015
Другие материалы по этой песне:
  • Аккорды и текст

Страница создана 06.06.2015
http://primanota.ru/misc-soundtrack/bugs-tv-theme-chords.htm
Привет, Гость.
Предлагаем пройти революционный курс по гитаре.
Подарок от PrimaNota.Ru, забирай!