PrimaNota.ru - самый крупный в мире бесплатный архив песенных текстов, аккордов, табулатур и нот


Misc Soundtrack - Le Fantome De Barbe Noir - Comme Chaque Marin - таба

Регистрация Запомнить меня
Войти через:  Facebook Google Twitter Vk Yandex Mail.ru

Misc Soundtrack - Le Fantome De Barbe Noir - Comme Chaque Marin - таба

Печатать
Просмотров: 82
-------------------------------------------------------------------------------
            Le Fantome De Barbe Noir - Comme Chaque Marin
-------------------------------------------------------------------------------

e|---------------------------------------------------------------------------|
B|--------------------3---1--------------------------------------------------|
G|-------3--3---3------------- 3--2-0----------------------------------------|
D|-3-----------------------------------3-------------------------------------|
A|---------------------------------------------------------------------------|
E|---------------------------------------------------------------------------|
   Comme chaque marin aux mots de liberté, 

e|---------------------------------------------------------------------------|
B|---------------------1----3-----4------3-1-3-------------------------------|
G|---0----0----2- 3----------------------------------------------------------|
D|-3-------------------------------------------------------------------------|
A|---------------------------------------------------------------------------|
E|---------------------------------------------------------------------------|
   Levons bien la tête quoi qu'il puisse arriver,

e|---------------------------------------------------------------------------|
B|-3--1----------------------3----1------------------------------------------|
G|------3----------------------------3---------------------------------------|
D|-------------0----1-3-------------------0---1----3-------------------------|
A|---------------------------------------------------------------------------|
E|---------------------------------------------------------------------------|
   La-- gloire nous attends, nous n'avons pas d'entrave, 

e|----------------1----------------------------------------------------------|
B|---3-----1------------------1----1--1--------------------------------------|
G|-3----------3---------2--3----------------3--------------------------------|
D|---------------------------------------------------------------------------|
A|---------------------------------------------------------------------------|
E|---------------------------------------------------------------------------|
   Voguons le cœur fier et restons de vrais braves.

e|---------------------------------------------------------------------------|
B|-1---1-1------------1-----------------------------------------------------|
G|-------------2--3---------------------------------------------------------|
D|---------------------------------------------------------------------------|
A|---------------------------------------------------------------------------|
E|---------------------------------------------------------------------------|
   Des bateaux et des hommes, 

e|---------------------------------------------------------------------------|
B|-3--3-3---------3----------------------------------------------------------|
G|----------3--1-------------------------------------------------------------|
D|---------------------------------------------------------------------------|
A|---------------------------------------------------------------------------|
E|---------------------------------------------------------------------------|
   Le désir de se battre,

e|---------------------------------------------------------------------------|
B|-3-----------3-------------------------------------------------------------|
G|----3---2----------3-------------------------------------------------------|
D|-----------------------0-----3-3-------------------------------------------|
A|------------------------------------3-----0--------------------------------|
E|----------------------------------------------1----------------------------|
   Soyons bien prêts les gars, hissez-haut, les gars.

e|-----------------------------1---------------------------------------------|
B|---------------------------------------------------------------------------|
G|----0----0--2--3-----1-----------------------------------------------------|
D|-3-----------------------3---------------3---------------------------------|
A|---------------------------------3---3-------------------------------------|
E|---------------------------------------------------------------------------|
   Suivons la victoire qui est là, qui est là !
Добавлено: 23.09.2015
Другие материалы по этой песне:
  • Аккорды и текст

Страница создана 23.09.2015
http://primanota.ru/misc-soundtrack/le-fantome-de-barbe-noir-comme-chaque-marin-chords.htm
Привет, Гость.
Предлагаем пройти революционный курс по гитаре.
Подарок от PrimaNota.Ru, забирай!