PrimaNota.ru - самый крупный в мире бесплатный архив песенных текстов, аккордов, табулатур и нот


Misc Soundtrack - Sex And The City - Mikhaïl Baryshnikov - Adahs Theme - таба

Регистрация Запомнить меня
Войти через:  Facebook Google Twitter Vk Yandex Mail.ru

Misc Soundtrack - Sex And The City - Mikhaïl Baryshnikov - Adahs Theme - таба

Печатать
Просмотров: 126
-------------------------------------------------------------------------------
             Sex And The City - Mikhaïl Baryshnikov - Adah's Theme
-------------------------------------------------------------------------------
Tabbed by: DDDIEGO
E-mail: soundcloud.com/diego-a-m

This is the main idea, I will be editing and adding bass notes.

Tuning: STANDARD

CAPO ON 3 or 4 . Depends on your source, european or american DVD and TV.


e|--3--2-0-2-3-2-------3--2-0-2-3-7--(0)----7-8--7-5-----7--5----------5-----0-----------|
B|-0------------------0------------(6)---------------8-7------8-7-8-7----8-7---7-4---0---|
G|--------------(2)--------------------(7)-----------------------------------------5-----|
D|---------------------------------------------------------------------------------------|
A|---------------------------------------------------------------------------------------|
E|---------------------------------------------------------------------------------------|

e|--3--2-0-2-3-2-------3--2-0-2-3-7--(0)----7-8--7-5-----7--5----------5-------0--|
B|-0------------------0------------(6)---------------8-7------8-7-8-7----8-7-8----|
G|--------------(2)--------------------(7)----------------------------------------|
D|--------------------------------------------------------------------------------|
A|--------------------------------------------------------------------------------|
E|--------------------------------------------------------------------------------|

e|---------------------------------------------------------------------------|
B|---0-1------0-----------------0-----1-0-----0------------------------------|
G|-0------2--3---------------0-2---------------2-------0--0------------------|
D|---------------0-2---0-2-4-------------2------0---2-4--2-4-2-1-2-4---------|
A|-------------------3-------------------------------------------------------|
E|---------------------------------------------------------------------------|

e|---------------------------------|
B|---0-1------0-----------------0--|
G|-0------2--3---------------0-2---|
D|---------------0-2---0-2-4-------|
A|-------------------3-------------|
E|---------------------------------|

e|-8-7--0-(3)(5)(7)--7-5--(3)(5)(7)--0-2-3---2-0--7--5---0-----|
B|-----------------------3----------------------4--------------|
G|-------------------------------------------------------------|
D|-------------------------------------------------------------|
A|-------------------------------------------------------------|
E|-------------------------------------------------------------|


************************************

| /   slide up
| \   slide down
| h   hammer-on
| p   pull-off
| ~   vibrato
| +   harmonic
| x   Mute note
| b   Bend
| pb  Pre-bend
| br  Bend release
| pbr Pre-bend release
| brb Bend release bend

************************************
Добавлено: 23.09.2015
Другие материалы по этой песне:
  • Аккорды и текст

Страница создана 23.09.2015
http://primanota.ru/misc-soundtrack/sex-and-city-mikhail-baryshnikov-adahs-theme-chords.htm
Привет, Гость.
Предлагаем пройти революционный курс по гитаре.
Подарок от PrimaNota.Ru, забирай!