PrimaNota.ru - самый крупный в мире бесплатный архив песенных текстов, аккордов, табулатур и нот


Misc Soundtrack - Secret Sky Theme - таба, видео

Регистрация Запомнить меня
Войти через:  Facebook Google Twitter Vk Yandex Mail.ru

Misc Soundtrack - Secret Sky Theme - таба, видео

Печатать
Просмотров: 96
Rokka no Yuusha Ending- Secret Sky- Tabs
Drop D (DADGBe) Capo 2nd Fret (not needed I just like it there :P )
Arranged By: Drew-James Knowles

Fingerpicking Section (Intro)
   (x                                                                                                    x)
e:-----7--------6h7--9--7---------------------------------11-11---------9-9--7------6-----------6-----------|
B:--4-----4----------7-----11--9-----------9/11--7-----9--12-12---7--7-------11--7--7--7-----------7-----9--|
G:-----------4-------9---------8--8-----------------8--8----------------------------6-----6-----------6--8--|
D:-----------------------------6-----6-------------------------------9--------------6--------6-----------6--|
A:-----------------------------7--------7-------------------------------------------------------------------|
E:-----6--------6----9--------------------------------------------------------------------------------------|

Pick (Recommended) Section
|------------------------------------------------------------------------------------------------------------|
|-------------------------------------------------------------------9---------------------------------11-7-9-|
|-----------8--10/11/10--8-----8--6----------------8--10/11/10--11-----11--10--------10-8--------8-10--------|
|---6--8/9------------------6--------9--8--6--8/9------------------------------11--9-------10-11-------------|
|------------------------------------------------------------------------------------------------------------|
|------------------------------------------------------------------------------------------------------------|

|--------------------------------------------------9-11--|
|-----------------------11--9-12-11-11-----9-11-12---12--|
|--11-10-8-------8------11--8-----------11---------------|
|----------11-9--9--11--11-------------------------------|
|--------------------------------------------------------|
|--------------------------------------------------------|


|-------------------------------------------------------------------------------------------------------------|
|----------------------------------------------------------------------11--9-11-9-----------------9-----------|
|---------------8-10--11-10-8-----8---------8----------11--10-11-10-11------------11-10--11-11-11---10-11-10-8|
|-9--8-9-8-9-11---------------11--------------11-9-8----------------------------------------------------------|
|------------------------------------11-11--------------------------------------------------------------------|
|-------------------------------------------------------------------------------------------------------------|

-------------------------------------------|
-----------------------------------------9-|
--8----------10-----11--11-10-8----11-10---|
----11-10--------11-------------11---------|
----------11-------------------------------|
-------------------------------------------|


  (x                            x)
|-------------------------------------------------------------------------------------|
|--9-11-12-11-9----9-11-9---------------------------------------------------------11--|
|---------------11--------11-9-11--8-9-8-9-11-9-11-13-13-13-13/15-13-12--12-12-13-----|
|-------------------------------------------------------------------------------------|
|-------------------------------------------------------------------------------------|
|-------------------------------------------------------------------------------------|



Rhythm Section
This first part of this(The picking) is for the intro, mid section which will be mark (x-x) as start and end.
[You should play it at least 3 times in each section (start, middle, end).
The Strumming for the chords is down, up, down, up.
e--------------------------|    |4|     |6|     |7|     |6|
B-------4-----4----4-----4-|    |4|     |6|     |7|     |6|
G-----4-----4----4-----4---|    |4|     |6|     |7|     |6|
D---6-----4----------------|    |4|     |6|     |7|     |6|
A--------------7-----7-----|    |x|     |x|     |x|     |x|
E--------------------------|    |6|     |8|     |9|     |8|

Fingerpicking Section (Outro)
   (x                                                                                                    x)
e:-----7--------6h7--9--7---------------------------------11-11---------9-9--7------6-----------6-----------|
B:--4-----4----------7-----11--9-----------9/11--7-----9--12-12---7--7-------11--7--7--7-----------7-----9--|
G:-----------4-------9---------8--8-----------------8--8----------------------------6-----6-----------6--8--|
D:-----------------------------6-----6-------------------------------9--------------6--------6-----------6--|
A:-----------------------------7--------7-------------------------------------------------------------------|
E:-----6--------6----9--------------------------------------------------------------------------------------|

Repeat for a second time and then end. 
   (x                                                                                                    x)
e:-----7--------6h7--9--7---------------------------------11-11---------9-9--7------6-----------6-----------|
B:--4-----4----------7-----11--9-----------9/11--7-----9--12-12---7--7-------11--7--7--7-----------7-----9--|
G:-----------4-------9---------8--8-----------------8--8----------------------------6-----6-----------6--8--|
D:-----------------------------6-----6-------------------------------9--------------6--------6-----------6--|
A:-----------------------------7--------7-------------------------------------------------------------------|
E:-----6--------6----9--------------------------------------------------------------------------------------|
Добавлено: 23.09.2015
Другие материалы по этой песне:
  • Аккорды и текст

Страница создана 23.09.2015
http://primanota.ru/misc-soundtrack/secret-sky-theme-chords.htm
Привет, Гость.
Предлагаем пройти революционный курс по гитаре.
Подарок от PrimaNota.Ru, забирай!