PrimaNota.ru - самый крупный в мире бесплатный архив песенных текстов, аккордов, табулатур и нот


Misc Soundtrack - Sherlock - Opening Theme - таба, видео

Регистрация Запомнить меня
Войти через:  Facebook Google Twitter Vk Yandex Mail.ru

Misc Soundtrack - Sherlock - Opening Theme - таба, видео

Печатать
Просмотров: 630
Уроки эстрадного вокала в Санкт-Петербурге
-------------------------------------------------------------------------------
        BBC Sherlock Opening Theme - David Arnold and Michael Price
-------------------------------------------------------------------------------
Tabbed by: Neighdeer

Tuning: Standard
     Am                   D       Dm
e|---0--------------------2-------1---------------0-----0------------------2-|
B|---1------8------7------3-------3-------6-------1-----1----10-----8------3-|
G|---2--------------------2-------2---------------2-----2------------------2-|
D|---2--------------------0-------0---------------2-----2------------------0-|
A|---0--------------------------------------------0-----0--------------------|
E|---0--------------------------------------------0-----0--------------------|

e|---2-------------------------------0--------0-----------2------------------|
B|---3-----5----6--------6-----8-----1--------1-----6-----3------------------|
G|---2-------------------------------2--------2-----------2------------------|
D|---0-------------------------------2--------2-----------0------------------|
A|-----------------------------------0--------0------------------------------|
E|-----------------------------------0--------0------------------------------|

you can do the drumming bit at the end if you want, but that's it.

Please post corrections if you find any.
Добавлено: 23.09.2015
Другие материалы по этой песне:
  • Аккорды и текст

Страница создана 23.09.2015
http://primanota.ru/misc-soundtrack/sherlock-opening-theme-chords.htm
Привет, Гость.
Предлагаем пройти революционный курс по гитаре.
Подарок от PrimaNota.Ru, забирай!