PrimaNota.ru - самый крупный в мире бесплатный архив песенных текстов, аккордов, табулатур и нот


Misc Soundtrack - Ori And The Blind Forest - Ori Lost In The Storm - таба, видео

Регистрация Запомнить меня
Войти через:  Facebook Google Twitter Vk Yandex Mail.ru

Misc Soundtrack - Ori And The Blind Forest - Ori Lost In The Storm - таба, видео

Печатать
Просмотров: 369
Song's name: Ori, Lost In the Storm (feat. Aeralie Brighton) (track nr. 1 from the CD's OST of the game)
Composer: Gareth Coker
Game: ORI AND THE BLIND FOREST
Tabbed and arranged by: FabioLight
E-mail: faby96tv@hotmail.it

Hope you'll enjoy it!

Tuning: STANDARD

LISTEN THE SONG HERE! --> https://youtu.be/j-Fhx2IEztw


  FOR THE VOCAL PART FROM 00:00 TO 00:08
e|------------------------------------|
B|------------------------------------|
G|------------------------------------|
D|------------------------------------|
A|---5------5/9------10------10/12----|
E|------------------------------------|

  FOR THE PIANO FROM 00:08 TO 00:12
e|-------------------------------------------------------|
B|---10----8----10----6----------------------------------|
G|-------------------------5----7------------------------|
D|-----------------------------------7----5----7---------|
A|--------------------------------------------------5----|
E|-------------------------------------------------------|

  FOR THE CELLOS FROM 00:13 TO 00:18
e|----------------------------------|
B|----------------------------------|
G|----------------------------------|
D|---------7------5-----------------|
A|---5------------------6-----5-----|
E|----------------------------------|

  FOR THE VOCAL FFROM 00:22 TO 00:46
e|---------------------------------------------------------------|
B|---6---8---6---5-----------------------------------------------|
G|-------------------5-------------------------------------------|
D|-----------------------7---5---7-------5---7---3---2-----------|
A|-----------------------------------5-------------------3---5---|
E|---------------------------------------------------------------|

e|----------------------------------------------------------------------|
B|---3/6---8---6---5----------------------------------------------------|
G|---------------------5------------------------------------------------|
D|-------------------------7---5---7-------5---7-----------3---2--------|
A|-------------------------------------5-----------5---3-----------5----|
E|----------------------------------------------------------------------|

e|------------------------------|
B|------------------------------|
G|------------------------------|
D|----------------2---3---------|
A|---3/5--5---3-----------5~~---|
E|------------------------------|

Добавлено: 23.09.2015
Другие материалы по этой песне:
  • Аккорды и текст

Страница создана 23.09.2015
http://primanota.ru/misc-soundtrack/ori-and-blind-forest-ori-lost-in-storm-chords.htm
Привет, Гость.
Предлагаем пройти революционный курс по гитаре.
Подарок от PrimaNota.Ru, забирай!