PrimaNota.ru - самый крупный в мире бесплатный архив песенных текстов, аккордов, табулатур и нот


Misc Soundtrack - Once Upon A Time In Mexico - Siente Mi Amor - таба, видео

Регистрация Запомнить меня
Войти через:  Facebook Google Twitter Vk Yandex Mail.ru

Misc Soundtrack - Once Upon A Time In Mexico - Siente Mi Amor - таба, видео

Печатать
Просмотров: 123
Уроки эстрадного вокала в Санкт-Петербурге
                    SIENTE MI AMOR


 here's the full song. Credit goes to a guy on youtube who made this and i just tabbed it. Easily
 the best version on the song and its a full version!


                                        (/) Slide


Stave 1:

E|-------------------3-2-0---------------------3-2-0-|
B|-----1-0---0-1---------------0-0-------------------|
G|---------2-----------------------2-0-2/4-----------|
D|---2-----------------------------------------------|
A|-0---------------0---------2---------------2-------|
E|---------------0---------0---------------0---------|

Stave 2:

E|-----------2-------------3-5/7---------------------------|
B|---------0-4---------5/7---------------3-1-0-1-3/5-------|
G|-------2-------------------------------------------------|
D|-----1---------------------------------------------------|
A|---2---------------------------------0---------------0-2-|
E|-0-------------3-2-0-----------0-2-3---------------0-----|

Stave 3:

E|---------------------|
B|-3-1-0-1-3---------0-|
G|-----------------2---|
D|---------------1-----|
A|-------------2-------|
E|-----------0---------|

Stave 4:

E|-0-2-3-2-3-5-3-5-7-5-7-8-7-8---10-8-7-7-|
B|----------------------------------------|
G|----------------------------------------|
D|----------------------------------------|
A|----------------------------------------|
E|-----------------------------0----------|

Stave 5:

E|-0-2-3-2-0---------0-2-3/5-7--------------------7-7-7-8-7-5-7--|
B|-------------1--------------------0----------------------------|
G|-----------------2-------------------2-0-2/4-------------------|
D|---------------2-----------------------------------------------|
A|-------------0------------------0-2----------------------------|
E|------------------------------0---------------0----------------|

Stave 6:

E|---0-0-0-------0-2-2------------2-3-2-0-0----------0-|
B|----------------------------0--------------------0---|
G|---------4-4-4------------2--------------------0-----|
D|------------------------1--------------------2-------|
A|----------------------2--------------------2---------|
E|-------0---------------------------------------------|
Stave 7:

E|--2--3--3----5--7-----0----2--3--3---5--7----------2-------2-3-2-0-2---0-------0------|
B|------------------5------------------------5---0---------0-------------------0---1----|
G|--------2-----------5------------0-----------5---------2-------------------2-------2--|
D|-----2------------------------2----------------------1-------------------2------------|
A|--0----------0-------------2------------0----------2-------------------0--------------|
E|--------------------------------------------------------------------------------------|

Stave 8:

E|---2--3--3------5---7-----0-----2--3---3--5--7-------|
B|----------------------5------------------------5---0-|
G|---------2--------------5--------------0---------5---|
D|------2----------------------------2-----------------|
A|---0------------0---------------2------------0-------|
E|-----------------------------------------------------|

Stave 9:

E|---2---------2-3-2-0-2---0-------0-------|
B|---------0---------------------0---0-----|
G|-------2---------------------2-------0---|
D|-----1---------------------2-------------|
A|---2---------------------0---------------|
E|-----------------------------------------|

Stave 10:

E|-----------0-----------------0-----|
B|--1------1---1-------0-----0---0---|
G|-------2-------2---------0-------0-|
D|-----2-----------2-----2-----------|
A|--0------------------2-------------|
E|-----------------------------------|

Stave 11:

E|-----------0---|
B|---1-----1---1-|
G|-------2-------|
D|-----2---------|
A|---0-----------|
E|---------------|

Stave 12:

E|-12-12-12/10-10-10/8-8-8/7-7--7----|
B|-----------------------------------|
G|-----------------------------------|
D|-----------------------------------|
A|-------------------------------0---|
E|-----------------------------0-----|

Stave 13:

E|--2-3--0-----0-----|
B|---------------1---|
G|-----------2-----2-|
D|---------2---------|
A|-------0-----------|
E|-------------------|

Stave 14:

E|---2-3-0-----0-----|
B|---------------0---|
G|-----------0-----2-|
D|---------2---------|
A|-------2-----------|
E|-------------------|

Stave 15:

E|---2---------2-3-2-0-2---0-------0---|
B|---------0---------------------0---0-|
G|-------2---------------------0-------|
D|-----1---------------------2---------|
A|---2---------------------2-----------|
E|-------------------------------------|

Stave 16:

E|---2-3-0-----0-----|
B|---------------1---|
G|-----------2-----2-|
D|---------2---------|
A|-------0-----------|
E|-------------------|

Stave 17:

E|---2-3--0-----0------|
B|----------------0----|
G|------------0-----2--|
D|----------2----------|
A|--------2------------|
E|---------------------|

Stave 18:

E|---2-------2-3-2-0-2---0-------12----|
B|---------0-------------------0-------|
G|-------2-------------------0---------|
D|-----1-------------------2-----------|
A|---2-------------------2-------------|
E|--------------------------------0----|
Добавлено: 23.09.2015
Другие материалы по этой песне:
  • Аккорды и текст

Страница создана 23.09.2015
http://primanota.ru/misc-soundtrack/once-upon-a-time-in-mexico-siente-mi-amor-chords.htm
Привет, Гость.
Предлагаем пройти революционный курс по гитаре.
Подарок от PrimaNota.Ru, забирай!