PrimaNota.ru - самый крупный в мире бесплатный архив песенных текстов, аккордов, табулатур и нот


Misc Soundtrack - Borat - I Come Home With Love - таба, видео

Регистрация Запомнить меня
Войти через:  Facebook Google Twitter Vk Yandex Mail.ru

Misc Soundtrack - Borat - I Come Home With Love - таба, видео

Печатать
Просмотров: 149
Уроки эстрадного вокала в Санкт-Петербурге
-------------------------------------------------------------------------------
       Borat Theme    AKA    Eu Vin Acasa Cu Drag (I Come Home With Love)

                        by Ştefan de la Bărbuleşti
-------------------------------------------------------------------------------

Tabbed by: Nick Partlin
E-mail: nicpartlin@gmail.com

Tuning: Standard

e|---6-6-5-6-5-3--1-3-1----------5-5-3-5-3---------------|
B|-3--------------------4-4----1-----------6--3-4-3---3--|
G|--------------------------------------------------5----|
D|-------------------------------------------------------|
A|-------------------------------------------------------|
E|-------------------------------------------------------|

e|---3-3-1-3-1-------------------------3-2------------------|
B|-------------4-3--1-3-1----------1-4-----4-3-1-3-1---1-3--|
G|-3----------------------3-2----2-------------------3------|
D|----------------------------------------------------------|
A|----------------------------------------------------------|
E|----------------------------------------------------------|

e|---6-6-5-6-5-3--1-3-1----------5-5-3-5-3---------------|
B|-3--------------------4-4----1-----------6--3-4-3---3--|
G|--------------------------------------------------5----|
D|-------------------------------------------------------|
A|-------------------------------------------------------|
E|-------------------------------------------------------|

e|---3-3-1-3-1-------------------------3-2------------------|
B|-------------4-3--1-3-1----------1-4-----4-3-1-3-1--------|
G|-3----------------------3-2----2-------------------3-2-0--|
D|----------------------------------------------------------|
A|----------------------------------------------------------|
E|----------------------------------------------------------|
Добавлено: 06.06.2015
Другие материалы по этой песне:
  • Аккорды и текст

Страница создана 06.06.2015
http://primanota.ru/misc-soundtrack/borat-i-come-home-with-love-chords.htm
Привет, Гость.
Предлагаем пройти революционный курс по гитаре.
Подарок от PrimaNota.Ru, забирай!