PrimaNota.ru - самый крупный в мире бесплатный архив песенных текстов, аккордов, табулатур и нот


Misc Soundtrack - Flipped Suite Theme - таба, видео

Регистрация Запомнить меня
Войти через:  Facebook Google Twitter Vk Yandex Mail.ru

Misc Soundtrack - Flipped Suite Theme - таба, видео

Печатать
Просмотров: 94
-------------------------------------------------------------------------------
                             SONG NAME - Flipped Suite
-------------------------------------------------------------------------------
Tabbed by: Rob Chen
E-mail: robcornerstone@gmail.com

Tuning: Standard

e|--------5--4-----------2-----0---------------------------------------------|
B|-----5--------------------------------------3--2-----------0---------------|
G|--6--------------------------------------2-----------------------2---------|
D|-----------0--------------------------2------------------------------------|
A|-----------------------------0-----------------4---------------------------|
E|-----------------------------------------------------------------2---------|

e|-----------------------------------------------0-----------0---------------|
B|-----------3-----2-----0-----------------------------------------3---------|
G|-----------------------------------2-----1-----------2---------------------|
D|-----------0-----------------------2-----2-----------------------0---------|
A|-----------------------------------------------0---------------------------|
E|-----------------------------0---------------------------------------------|

e|-----------------------------------------------0-----------0---------------|
B|-----------2-----------2-----3-----------------------------------3---------|
G|-----------------------------------------------------2---------------------|
D|-----------------2-----------0-----------------------------------0---------|
A|-----------0-----------------------------------0---------------------------|
E|---------------------------------------------------------------------------|

e|-----------------------------4---------------------------------------------|
B|-----------------------5---------------------------------------------------|
G|-----------6---------------------------------------------------------------|
D|-----------------6---------------------------------------------------------|
A|-----------4---------------------------------------------------------------|
E|---------------------------------------------------------------------------|
Добавлено: 23.09.2015
Другие материалы по этой песне:
  • Аккорды и текст

Страница создана 23.09.2015
http://primanota.ru/misc-soundtrack/flipped-suite-theme-chords.htm
Привет, Гость.
Предлагаем пройти революционный курс по гитаре.
Подарок от PrimaNota.Ru, забирай!