PrimaNota.ru - самый крупный в мире бесплатный архив песенных текстов, аккордов, табулатур и нот


Misc Soundtrack - In Your Belief - таба, видео

Регистрация Запомнить меня
Войти через:  Facebook Google Twitter Vk Yandex Mail.ru

Misc Soundtrack - In Your Belief - таба, видео

Печатать
Просмотров: 96
In Your Belief

D|----------|
A|----------|
F|-3~-------|
C|-3~-------|
G|-5~-------|
C|----------|


INTRO


D|-8--10--12----12----13--12--12--8-|------------12--12---|------------||
A|----------------------------------|----6----------------|------------||
F|----------------------------------|--------12------8----|--------5~--||
C|--------10--------------8---------|---------------------|------------||
G|----------------------------------|------------10-------|-----6------||
C|----------------------------------|--------10-----------|--6---------||

D|------------------------------|-----------------|------------||
A|------------------------------|-----------------|------------||
F|-3--5---7----7----8--7--7-----|-10--10--12--12--|-------5~---||
C|---------------------8--8--8--|-------------10--|------------||
G|-------10------------------6--|-------------10--|----6--6~---||
C|-------10------------------6--|-----10------10--|-6-----6~---||


VERSE


D|-----------------------------|----------------------------||
A|-----------------------------|----------------------------||
F|-------7--5~----------7--5~--|--8---7---------------------||
C|-3--5-----6~-------5-----8~--|------6---10--10~----8--5~--||
G|----3------------------------|------6----6---6~-----------||
C|----3-----------3--5---------|------6----6---6~-------8~--||

D|---------12---------------------15--17~--|--------------------||
A|-------------13~--------15--13-----------|--------------------||
F|-10--12------10~----12-------------------|----------7--10--12-||
C|------8------10~--------12--10-----------|-------5------------||
G|------8-------------10-------------------|----5---------------||
C|-----------------------------------------|-5------------------||


CHORUS


D|-10--10~---17--17------------15--17---------------|-----------------|
A|-------------------15--15~-----------15--13--13~--|-----------------|
F|-12--12~------------------------------------------|-----------------|
C|-10--10~-----------13--13~-----------10--10--10~--|------8-----8----|
G|-10--10~-----------13--13~-----------10--10--10~--|---5-----5-----5-|
C|--------------------------------------------------|-5---------------|

D|-15--17------------15----------------15--17~--|
A|---------13--13~-------15--13~---13-----------|
F|-------------------------------------10--12~--|
C|---------10--10~-------13--13~----------------|
G|---------10--10~-------13--13~----------------|
C|----------------------------------------------|

D|------------------------------|
A|------------------------------|
F|------------------------10-12-|
C|---------------10-12-13-------|
G|------10-12-13----------------|
C|-12~--------------------------|

D|-------------------------------------------|------------------|
A|--------12--12-----------------------------|------------------|
F|-5--5~--8---8---12--12---------12--10-10~--|------------------|
C|-5--5~--8---8---8---8---10/12--10--10-10~--|-------8-----8----|
G|-3--3~--8---8---8---8---8/-10--10--10-10~--|----5-----5-----5-|
C|-------------------------------------------|-5----------------|

D|-12--13--10--10~--10--10--8---10--10~----||
A|-----------------------------------------||
F|-----------------------------------------||
C|---------8----8~-------------------------||
G|---------8----8~------10-----------------||
C|----------------------------------10~----||


VERSE 2


D|------------------------------------------------------------------||
A|------------------------------------------------------------------||
F|----------0---3~-------------------5---------------5--7-----------||
C|-------1------1~----------1--3--5---------------6-----------------||
G|----3---------1~-------3------------------3--5--------------5~----||
C|-5------------------5------------------6-----------------8--------||

D|----------------------------------------------------------------------||
A|---------------------------------------3--(or you can hit 4th string--||
F|-7--5--5~---8--7--5---/10--7--5--5~---------7th fret if it's easier)--||
C|------------------------------------------5~--------------------------||
G|---------------------------3~-------------8~--------------------------||
C|-6-------------8--------------------------8~--------------------------||

D|-----------------------------------------------------------------------|
A|-----------------------------------------------------------------------|
F|-7--5--5~---8------------/10------------------------------------10--12-|
C|-6--6--6~------12-10-10-------12--10--10----------------10--12---------|
G|-6--6--6~-------8--8--8-------10--10--10------------10-----------------|
C|-6--6--6~-------8--8--8-------10--10--10--10~---10---------------------|

D|-12--10--10~---13--12--10--10~---15----------------|
A|-8----8---8~-------10--10--10~-------15--13--13~---|
F|-8----8---8~-------10--10--10~-------12--12--12~---|
C|-8----8---8~-------10--10--10~-------13--13--13~---|
G|---------------------------------------------------|
C|---------------------------------------------------|

D|-------------------------15--17--|
A|-----------------13--15----------|
F|-----12------12------------------|
C|-13------13----------------------|
G|---------------------------------|
C|---------------------------------|

D|-12--10--10~---13--12--10--10~---15----------------|
A|-8----8---8~-------10--10--10~-------15--13--13~---|
F|-8----8---8~-------10--10--10~-------12--12--12~---|
C|-8----8---8~-------10--10--10~-------13--13--13~---|
G|---------------------------------------------------|
C|---------------------------------------------------|

D|---------------------------------12-13------------------15-17~--||
A|-------------------------8-10-11---------------11-13-15---------||
F|-------------7-8--7-8-10---------------8-12-13------------------||
C|-------5-6-8----------------------------------------------------||
G|-5-6-8----------------------------------------------------------||
C|----------------------------------------------------------------||


CHORUS


D|-10--10~---17--17------------15--17---------------|-----------------|
A|-------------------15--15~-----------15--13--13~--|-----------------|
F|-12--12~------------------------------------------|-----------------|
C|-10--10~-----------13--13~-----------10--10--10~--|------8-----8----|
G|-10--10~-----------13--13~-----------10--10--10~--|---5-----5-----5-|
C|--------------------------------------------------|-5---------------|

D|-15--17------------15----------------15--17~--|
A|---------13--13~-------15--13~---13-----------|
F|-------------------------------------10--12~--|
C|---------10--10~-------13--13~----------------|
G|---------10--10~-------13--13~----------------|
C|----------------------------------------------|

D|------------------------------|
A|------------------------------|
F|------------------------10-12-|
C|---------------10-12-13-------|
G|------10-12-13----------------|
C|-12~--------------------------|

D|-------------------------------------------|------------------|
A|--------12--12-----------------------------|------------------|
F|-5--5~--8---8---12--12---------12--10-10~--|------------------|
C|-5--5~--8---8---8---8---10/12--10--10-10~--|-------8-----8----|
G|-3--3~--8---8---8---8---8/-10--10--10-10~--|----5-----5-----5-|
C|-------------------------------------------|-5----------------|

D|-12--13--10--10~--10--10--8---10--10~----|
A|-----------------------------------------|
F|-----------------------------------------|
C|---------8----8~-------------------------|
G|---------8----8~------10-----------------|
C|----------------------------------10~----|

in second chorus only
D|--------------------------------------------|
A|--------------------------------------------|
F|--------------------------------------------|
C|10-10-10-10-10-10-10-10--12-12-12-12--13-13-|
G|10-10-10-10-10-10-10-10--12-12-12-12--13-13-|
C|10-10-10-10-10-10-10-10--12-12-12-12--13-13-|


D|-12--13--10--10~--10--10--8---10--10~----||
A|-----------------------------------------||
F|-----------------------------------------||
C|---------8----8~-------------------------||
G|---------8----8~------10-----------------||
C|----------------------------------10~----||


Outro


D|-------------------------------------------------------------------|
A|-------------------------------------------------------------------|
F|-10--12------------------------------7--5--5~---------5------7--8--|
C|---------12--10~---13--12--10~--/15----------------0---------------|
G|-------------------------------------------------------------------|
C|---------10--10~-------13------------6----------6--------/8--------|

D|-----------------------------------------------------------||
A|-----------------------------------------------------------||
F|-----------------------------7--5--5~--------------5~------||
C|-12--10~---13--12--10~--/15------------------------5~------||
G|---------------------------------------------------3~------||
C|-10--10~-------13------------6----------6--3~--5~----------||
Добавлено: 23.09.2015
Другие материалы по этой песне:
  • Аккорды и текст

Страница создана 23.09.2015
http://primanota.ru/misc-soundtrack/in-your-belief-chords.htm
Привет, Гость.
Предлагаем пройти революционный курс по гитаре.
Подарок от PrimaNota.Ru, забирай!