PrimaNota.ru - самый крупный в мире бесплатный архив песенных текстов, аккордов, табулатур и нот


Misc Soundtrack - Irene Adler Theme - таба, видео

Регистрация Запомнить меня
Войти через:  Facebook Google Twitter Vk Yandex Mail.ru

Misc Soundtrack - Irene Adler Theme - таба, видео

Печатать
Просмотров: 165
-------------------------------------------------------------------------------
                             Irene Adler
-------------------------------------------------------------------------------
Tabbed by:
E-mail:

Tuning:

e|----------------------------------------------|
B|----------------------------------------------|
G|---7------------------------------------------|
D|--7----10----7-10--------10-9-----7-10--------|
A|-8----------7--------7-11--------8------------|
E|----------------------------------------------|

e|----------------------------------------------|
B|----------------------------------------------|
G|----9--7--------------------------------------|
D|--7------10-9-7----6-7-9-10--7----------------|
A|-8---------------------------7----------------|
E|----------------------------------------------|



************************************

| /   slide up
| \   slide down
| h   hammer-on
| p   pull-off
| ~   vibrato
| +   harmonic
| x   Mute note
| b   Bend
| pb  Pre-bend
| br  Bend release
| pbr Pre-bend release
| brb Bend release bend

************************************
Добавлено: 23.09.2015
Другие материалы по этой песне:
  • Аккорды и текст

Страница создана 23.09.2015
http://primanota.ru/misc-soundtrack/irene-adler-theme-chords.htm
Привет, Гость.
Предлагаем пройти революционный курс по гитаре.
Подарок от PrimaNota.Ru, забирай!