PrimaNota.ru - самый крупный в мире бесплатный архив песенных текстов, аккордов, табулатур и нот


Misc Soundtrack - Fair City Theme - таба, видео

Регистрация Запомнить меня
Войти через:  Facebook Google Twitter Vk Yandex Mail.ru

Misc Soundtrack - Fair City Theme - таба, видео

Печатать
Просмотров: 82
-------------------------------------------------------------------------------
                             Fair City Theme
-------------------------------------------------------------------------------
Tabbed by: Paddy

Tuning: Standard

e|---------------------------------------------------------------------------|
B|-------------------1--3------------------------------------------------1--3|
G|----0----2----4--------------0----2----0----------------0----2----4--------|
D|--------------------------------------------4--0---------------------------|
A|---------------------------------------------------------------------------|
E|---------------------------------------------------------------------------|

e|---------------------------------------------------------------------------|
B|---------------1--3--------------------------------------------------------|
G|----0--2--4---------------0------------------------------------------------|
D|-----------------------4---------------------------------------------------|
A|---------------------------------------------------------------------------|
E|---------------------------------------------------------------------------|
Добавлено: 23.09.2015
Другие материалы по этой песне:
  • Аккорды и текст

Страница создана 23.09.2015
http://primanota.ru/misc-soundtrack/fair-city-theme-chords.htm
Привет, Гость.
Предлагаем пройти революционный курс по гитаре.
Подарок от PrimaNota.Ru, забирай!