PrimaNota.ru - самый крупный в мире бесплатный архив песенных текстов, аккордов, табулатур и нот


Misc Soundtrack - Evangelion 333 - Thème Q - таба, видео

Регистрация Запомнить меня
Войти через:  Facebook Google Twitter Vk Yandex Mail.ru

Misc Soundtrack - Evangelion 333 - Thème Q - таба, видео

Печатать
Просмотров: 91
-------------------------------------------------------------------------------
                             Thème Q - Evangelion 3.33
-------------------------------------------------------------------------------
Tabbed by:Bruno Rezende
E-mail:kyosonmorew@gmail.com

Fingerstyle tab

Tuning:E Standard

e|----------------------------------------------------------------------------|
B|-----------------------5-3--------------------------------------------------|
G|--------4-2-----2-4-6------2~---5-5-4-3-4-4-2-1-2-2-1-2-4-4-2-4\6-9-9-7-6-7-|
D|-2-4-6------2~---------3----------4-------2-------2-------2---------7-------|
A|--------3-------------------------------------------------------------------|
E|----------------------------------------------------------------------------|

e|------------------------------------------------5-7-9-10\12~-10~-5~--------|
B|-------------------------5-7-9-10\12~-10~-5~-------------------------------|
G|-7-5-4-5-5-4-3-4-2~-1~-----------------------------------------------------|
D|-5-------4-------2~-2~-----------------------------------------------------|
A|---------------------------------------------------------------------------|
E|---------------------------------------------------------------------------|

Добавлено: 23.09.2015
Другие материалы по этой песне:
  • Аккорды и текст

Страница создана 23.09.2015
http://primanota.ru/misc-soundtrack/evangelion-333-theme-q-chords.htm
Привет, Гость.
Предлагаем пройти революционный курс по гитаре.
Подарок от PrimaNota.Ru, забирай!