PrimaNota.ru - самый крупный в мире бесплатный архив песенных текстов, аккордов, табулатур и нот


Misc Soundtrack - All Aussie Adventures Theme Russell Coight - таба, видео

Регистрация Запомнить меня
Войти через:  Facebook Google Twitter Vk Yandex Mail.ru

Misc Soundtrack - All Aussie Adventures Theme Russell Coight - таба, видео

Печатать
Просмотров: 133
Уроки эстрадного вокала в Санкт-Петербурге
The 'All Aussie Adventures' theme song (Russell Coight)

Written: Liam Bradley
Arranged/tabbed: wilburine

This is for all the Aussies out there, you'll know this show ;)
According to the credits, this was written by a bloke called Liam Bradley
I've just done the main theme (Guitar 1) and the solo behind it that you hear in the credits (Guitar 2).

Key:
p = pull-off
h = hammer-on
s = slide
b = bend (most are just 1/4 bends)
br = bend, then return
If a note is in brackets, it is being sustained from the previous bar

In 4/4 time and E Major

Guitar 1: Rhythm
Guitar 2: Lead


Guitar 1
|-----0-0--|--0---------|--------------------|-----------------|-----------------|
|-----0-0--|--0---------|--------------------|-----------------|-----------------|
|-----1-1--|--1---------|--------------------|--2---2-----2p0--|--2---2-----2p0--|
|-----2-2--|--2---------|--------------------|--2---2-----2p0--|--2---2-----2p0--|
|-----2-2--|--2---------|--------------------|--0---0----------|--0---0----------|
|-----0-0--|--0---------|-------0-0-2-2-4-4--|-----------------|-----------------|
Guitar 2                                                                              |
|----------|------------|--------------------|-----------------|-----------------|
|----------|------------|--------------------|--10--10----12---|--12b-12----12b--|
|----------|------------|--------------------|-----------------|-----------------|
|----------|------------|--------------------|-----------------|-----------------|
|----------|------------|--------------------|-----------------|-----------------|
|----------|------------|--------------------|-----------------|-----------------|
                                       I've    been around this wide brown land,


Guitar 1
|-----------------------|--------------------|-----------------|-----------------|
|-----------------------|--------------------|-----------------|-----------------|
|--4---4-----4p2--------|--4---4-----4p2-----|--2---2-----2p0--|--2---2-----2p0--|
|--4---4-----4p2--------|--4---4-----4p2-----|--2---2-----2p0--|--2---2-----2p0--|
|--2---2----------------|--2---2-------------|--0---0----------|--0---0----------|
|-----------------------|--------------------|-----------------|-----------------|
Guitar 2                                                                              |
|-----------------------|--------------------|-----------------|-----------------|
|--12--12----12b--------|--7---------10------|--10--10----7----|--10-12b----12b--|
|-----------------------|--------------------|-----------------|-----------------|
|-----------------------|--------------------|-----------------|-----------------|
|-----------------------|--------------------|-----------------|-----------------|
|-----------------------|--------------------|-----------------|-----------------|
  seen a thing or         two,      from the  great outback to  beaten track let me


Guitar 1
|-------------------|--------------------|-----------------|------------------|
|-------------------|--------------------|-----------------|--------7---------|
|-------------------|------2-------------|--2--------------|------------7-----|
|------4-4-2-2------|------2-------------|--2--------------|------7--------7--|
|--2-2---------2-2--|--0---0-----0-0-----|--0---0-0-2---4--|--5---------------|
|-------------------|--------------------|-----------------|------------------|
Guitar 2                                                                           |
|-------------------|--------------------|-----------------|--10----10--12----|
|--10-----10---10b--|--10----------------|-----------------|------------------|
|-------------------|--------------------|-----------------|------------------|
|-------------------|--------------------|-----------------|------------------|
|-------------------|--------------------|-----------------|------------------|
|-------------------|--------------------|-----------------|------------------|
 share an hour with you                                      All aussie ad-

Guitar 1
|-------------------|-----------------------|-------------------|--------------------|
|-------------------|-----------------------|-------3-----------|--------7-----------|
|--------9----------|---------11------------|--2b-----2br2p0----|------------7-------|
|------9-----9------|------11------11-------|----------------2--|------7--------7----|
|--7-------------9--|--9----------------11--|-------------------|--5-----------------|
|-------------------|-----------------------|-------------------|--------------------|
Guitar 2                                                                                  |
|--12b---12---------|--5-------5--------8b--|--(8b)-------------|--10----10------12--|
|-------------------|-----------------------|-------------------|--------------------|
|-------------------|-----------------------|-------------------|--------------------|
|-------------------|-----------------------|-------------------|--------------------|
|-------------------|-----------------------|-------------------|--------------------|
|-------------------|-----------------------|-------------------|--------------------|
 -ventures,          pack up your swag, let's go!                All aussie ad-


Guitar 1
|---------------------|-----------------------|-------------------|----------------------|
|---------------------|-----------------------|-------------------|--------7-------------|
|--------9------------|-----------------------|--------2----------|------------7---------|
|------9-----9--------|-----------------------|--0-2s4---4---2----|------7--------7------|
|--7-------------9----|--0----0-2----2-4------|-------------------|--5-------------------|
|---------------------|-----------------------|-------------------|----------------------|
Guitar 2                                                                                      |
|--12b---12------12b--|--7----10-7h10p7-------|-------------------|------10-10-10-10-12--|
|---------------------|-----------------7-----|--(7)--------------|----------------------|
|---------------------|-----------------------|-------------------|----------------------|
|---------------------|-----------------------|-------------------|----------------------|
|---------------------|-----------------------|-------------------|----------------------|
|---------------------|-----------------------|-------------------|----------------------|
 -ventures                                                          All aussie ad-


Guitar 1
|---------------------|-----------------------|---------------------|----------------------|
|---------------------|--3--------------------|--(3)----------------|----------------------|
|--------9------------|--2--------------------|--(2)---------2-2----|--2-------------------|
|------9-----9--------|--0--------------------|--(0)---------2-2----|--2-------------------|
|--7-------------9----|-----------------------|--------------0-0----|--0-------------------|
|---------------------|-----------------------|---------------------|----------------------|
Guitar 2
|--12b---12------12b--|-------10--------------|-------10------------|----------------------|
|---------------------|--12------12br12-------|--12------12br12-----|--10------------------|
|---------------------|-----------------11----|-----------------11--|----------------------|
|---------------------|-----------------------|---------------------|----------------------|
|---------------------|-----------------------|---------------------|----------------------|
|---------------------|-----------------------|---------------------|----------------------|
 -ventures,            Time we hit the road!






Get behind!

Добавлено: 06.06.2015
Другие материалы по этой песне:
  • Аккорды и текст

Страница создана 06.06.2015
http://primanota.ru/misc-soundtrack/all-aussie-adventures-theme-russell-coight-chords.htm
Привет, Гость.
Предлагаем пройти революционный курс по гитаре.
Подарок от PrimaNota.Ru, забирай!