PrimaNota.ru - самый крупный в мире бесплатный архив песенных текстов, аккордов, табулатур и нот


Misc Soundtrack - Arschlicht - таба

Регистрация Запомнить меня
Войти через:  Facebook Google Twitter Vk Yandex Mail.ru

Misc Soundtrack - Arschlicht - таба

Печатать
Просмотров: 125
-------------------------------------------------------------------------------
                 Arschlicht - aus dem Film "Ein Tick anders"
-------------------------------------------------------------------------------

Tabs von: mir
E-Mail für Fragen oder Korrekturen: hali271298@gmail.com

Tuning: Standard
* = palm muted
\ oder / = slide
^ = arpeggio aufwärts
\ unter Tabulatur = dive

Es ist höchstwahrscheinlich nicht hundertprozentig genau wegen dem ganzen Palm-Muting und weil die
Gitarre in diesem Seng sehr leise ist - aber es kommt dem schon sehr nahe.

Strophe 1:
   Hdim            C               Em             C
e|-1-1-1-1-1-1-1-1-0-0-0-0-0-0-0-0-0-0-0-0-0-0-0-0-0-0-0-0-0-0-0-0-|
B|-3-3-3-3-3-3-3-3-1-1-1-1-1-1-1-1-0-0-0-0-0-0-0-0-1-1-1-1-1-1-1-1-|
G|-4-4-4-4-4-4-4-4-0-0-0-0-0-0-0-0-0-0-0-0-0-0-0-0-0-0-0-0-0-0-0-0-|
D|-----------------------------------------------------------------|
A|-----------------------------------------------------------------|
E|-----------------------------------------------------------------| 2x

Refrain:
   F               Gsus2       G   F               Em
e|----------------------------------------------------^0-----------|
B|----------------------------------------------------^0-----------|
G|-----2-------2-------2-------4-------2-------2\-----^0-----------|
D|-----3-------3-------5-------5-5-----3-------3\--2--^2-----------|
A|-3-3-3-3-3-3-3-3-5-5-5-5-5-5-5-5-3-3-3-3-3-3-3\--2--^2-----------|
E|-1-1-1-1-1-1-1-1-3-3-3-3-3-3-3-3-1-1-1-1-1-1-1\--0--^0-----------|
   * *   * * *   * * *   * * *     * *   * * *     *

Zwischenspiel:
   G5              D5              Em              C5
e|-----------------------------------------------------------------|
B|-----------------------------------------------------------------|
G|-----------------7-7-7-7-7-7-7-7-----------------5-5-5-5-5-5-5-5-|
D|-5-5-5-5-5-5-5-5-7-7-7-7-7-7-7-7-5-5-5-5-5-5-5-5-5-5-5-5-5-5-5-5-|
A|-5-5-5-5-5-5-5-5-5-5-5-5-5-5-5-5-7-7-7-7-7-7-7-7-3-3-3-3-3-3-3-3-|
E|---------------------------------7-7-7-7-7-7-7-7-----------------|#
   * * * * * * * * * * * * * * * * * * * * * * * * * * * * * * * *

e|-12/13-----------12--------------10--------------13--12----------|
B|-----------------------------------------------------------------|
G|-----------------------------------------------------------------|
D|-----------------------------------------------------------------|
A|-----------------------------------------------------------------|
E|-----------------------------------------------------------------|

Strophe 2
   G               C(Maj7?)            Em              C(Maj7)
e|-------------------------------------0-----------12/13-------------| --> das hier wird nur
B|-----3--------------(0)--------------0----------------(0)-----(0)--|     beim zweiten Mal
G|-----4---------------5---------------0-----------------5-------5---|     gespielt (die obere
D|-----5---------------5---------------2-----------------5-------5---|     Zeile)
A|-5-5-5-5-5-5-5-5-3-3-3-3-3-3-3-3-2-2-2-2-2-2-2-2-3--3--3-3-3-3-3-3-|
E|-3-3-3-3-3-3-3-3-3-3-3-3-3-3-3-3-0-0-0-0-0-0-0-0-3--3--3-3-3-3-3-3-| 2x
   * *   * * * * * * *   * * * * * * *   * * * * * *  *  * * *   *

Refrain:
   F               Gsus2       G   F               Em
e|----------------------------------------------------^0-----------|
B|----------------------------------------------------^0-----------|
G|-----2-------2-------2-------4-------2-------2\-----^0-----------|
D|-----3-------3-------5-------5-5-----3-------3\--2--^2-----------|
A|-3-3-3-3-3-3-3-3-5-5-5-5-5-5-5-5-3-3-3-3-3-3-3\--2--^2-----------|
E|-1-1-1-1-1-1-1-1-3-3-3-3-3-3-3-3-1-1-1-1-1-1-1\--0--^0-----------|
   * *   * * *   * * *   * * *     * *   * * *     *   \
Добавлено: 06.06.2015
Другие материалы по этой песне:
  • Аккорды и текст

Страница создана 06.06.2015
http://primanota.ru/misc-soundtrack/arschlicht-chords.htm
Привет, Гость.
Предлагаем пройти революционный курс по гитаре.
Подарок от PrimaNota.Ru, забирай!