PrimaNota.ru - самый крупный в мире бесплатный архив песенных текстов, аккордов, табулатур и нот


Misc Soundtrack - Daredevil Theme - таба, видео

Регистрация Запомнить меня
Войти через:  Facebook Google Twitter Vk Yandex Mail.ru

Misc Soundtrack - Daredevil Theme - таба, видео

Печатать
Просмотров: 207
-------------------------------------------------------------------------------
                             Daredevil Main Theme
-------------------------------------------------------------------------------
Tabbed by: Wethenicole
Email: nikkib56@gmail.com

Tuning: Standard

This is my first tab on here so I hope you like it! I absolutely love this show and bingewatched it on netflix
and i felt the need to figure out how to play the awesome main theme of the show! 

e|---------------------|
B|---------------------|
G|---------------------|   x 2
D|--5------5-----------|
A|---6-5-3--6-5-3------|
E|---------------------|

e|---------------------|
B|---------------------|
G|---------------------|
D|--6-------6----------|  x 2
A|---6-5-3---6-5-3-----|
E|---------------------|

e|---------------------|
B|---------------------|
G|---------------------|
D|--3-------3----------|  x 2
A|---6-5-3---6-5-3-----|
E|---------------------|

That's basically it! For the next part you just double up everything
If there's any mistakes, don't be afraid to let me know!

************************************

| /   slide up
| \   slide down
| h   hammer-on
| p   pull-off
| ~   vibrato
| +   harmonic
| x   Mute note
| b   Bend
| pb  Pre-bend
| br  Bend release
| pbr Pre-bend release
| brb Bend release bend

************************************
Добавлено: 23.09.2015
Другие материалы по этой песне:
  • Аккорды и текст

Страница создана 23.09.2015
http://primanota.ru/misc-soundtrack/daredevil-theme-chords.htm
Привет, Гость.
Предлагаем пройти революционный курс по гитаре.
Подарок от PrimaNota.Ru, забирай!