PrimaNota.ru - самый крупный в мире бесплатный архив песенных текстов, аккордов, табулатур и нот


Misc Soundtrack - Daredevil - таба, видео

Регистрация Запомнить меня
Войти через:  Facebook Google Twitter Vk Yandex Mail.ru

Misc Soundtrack - Daredevil - таба, видео

Печатать
Просмотров: 145
-------------------------------------------------------------------------------
                        Daredevil Intro - Netflix/Marvel
-------------------------------------------------------------------------------
Tabbed by:
E-mail:

Tuning: E Standard

Guitar I (through whole song)
e|--15-11-------15-11-------15-11-------15-11-------16-11-------16-11--------|
B|--------15-13-------15-13-------15-13-------15-13-------15-13-------15-13--|
G|---------------------------------------------------------------------------|
D|---------------------------------------------------------------------------|
A|---------------------------------------------------------------------------|
E|---------------------------------------------------------------------------|

e|--16-11-------16-11-------16-11-------16-11-------16-11-------16-11--------|
B|--------15-13-------15-13-------15-13-------15-13-------15-13-------16-13--|
G|---------------------------------------------------------------------------|
D|---------------------------------------------------------------------------|
A|---------------------------------------------------------------------------|
E|---------------------------------------------------------------------------|

e|--15-11-------15-11-------15-11-------15-11--------------------------------|
B|--------15-13-------15-13-------15-13-------15-13--------------------------|
G|---------------------------------------------------------------------------|
D|---------------------------------------------------------------------------|
A|---------------------------------------------------------------------------|
E|---------------------------------------------------------------------------|

Guitar II (through the whole song at beginning of the melody)
e|---------------------------------------------------------------------------|
B|---------------------------------------------------------------------------|
G|--12-8-------12-8-------12-8-------12-8-------13-8-------13-8--------------|
D|-------12-10------12-10------12-10------12-10------12-10------12-10--------|
A|---------------------------------------------------------------------------|
E|---------------------------------------------------------------------------|

e|---------------------------------------------------------------------------|
B|---------------------------------------------------------------------------|
G|--13-8-------13-8-------13-8-------13-8-------13-8-------13-8--------------|
D|-------12-10------12-10------12-10------12-10------12-10------12-10--------|
A|---------------------------------------------------------------------------|
E|---------------------------------------------------------------------------|

e|---------------------------------------------------------------------------|
B|---------------------------------------------------------------------------|
G|--12-8-------12-8-------12-8-------12-8------------------------------------|
D|-------12-10------12-10------12-10------12-10------------------------------|
A|---------------------------------------------------------------------------|
E|---------------------------------------------------------------------------|

Guitar III (melody)
e|------------------------------11~~-10~~-11-15-13~~-13~~------------15~~----|
B|------------8-6~~-6~~-----------------------------------13~~-12-15---------|
G|--8~~-7~~-8-----------5~~-8~~----------------------------------------------|
D|---------------------------------------------------------------------------|
A|---------------------------------------------------------------------------|
E|---------------------------------------------------------------------------|

Guitar IV (in the background when the 'high' melody begins)
e|---------------------------------------------------------------------------|
B|--8-----8-----8-----8-----9-----9-----9-----9-----9-----9-----9-----9------|
G|----8-7---8-7---8-7---8-7---8-7---8-7---8-7---8-7---8-7---8-7---8-7---8-7--|
D|---------------------------------------------------------------------------|
A|---------------------------------------------------------------------------|
E|---------------------------------------------------------------------------|

e|---------------------------------------------------------------------------|
B|--8-----8-----8-----8------------------------------------------------------|
G|----8-7---8-7---8-7---8-7--------------------------------------------------|
D|---------------------------------------------------------------------------|
A|---------------------------------------------------------------------------|
E|---------------------------------------------------------------------------|

************************************

| /   slide up
| \   slide down
| h   hammer-on
| p   pull-off
| ~   vibrato
| +   harmonic
| x   Mute note
| b   Bend
| pb  Pre-bend
| br  Bend release
| pbr Pre-bend release
| brb Bend release bend

************************************
Добавлено: 23.09.2015
Другие материалы по этой песне:
  • Аккорды и текст

Страница создана 23.09.2015
http://primanota.ru/misc-soundtrack/daredevil--chords.htm
Привет, Гость.
Предлагаем пройти революционный курс по гитаре.
Подарок от PrimaNota.Ru, забирай!