PrimaNota.ru - самый крупный в мире бесплатный архив песенных текстов, аккордов, табулатур и нот


Misc Soundtrack - Braveheart Main Theme - таба, видео

Регистрация Запомнить меня
Войти через:  Facebook Google Twitter Vk Yandex Mail.ru

Misc Soundtrack - Braveheart Main Theme - таба, видео

Печатать
Просмотров: 95
---------------------------------------------------------------------------------------------------------------
                                      Artist - Movie Sound Track 
                                     ****************************
                                   Song - Brave Heart (Main Theme)
                                  *********************************
                                        Tabbed By - Ayreon77
                                       **********************
---------------------------------------------------------------------------------------------------------------
Tuning = Standard


Tabbed from This Video. As A Request.
https://www.youtube.com/watch?v=NIIIgt5p4bk


                        p                                        p
e|------------|-10-9--10-9-----------------|-----------|-10-9--10-9-----------s---|
B|--s---10-12-|------------12-10-10--12----|-s---10-12-|------------12-10-10--\12-|
G|-9\11-------|-------------------------11-|-\11-------|--------------------------|
D|------------|----------------------------|-----------|--------------------------|
A|------------|----------------------------|-----------|--------------------------|
E|------------|----------------------------|-----------|--------------------------|

                       p                                        p
e|-----------|-10-9--10-9-----------------|-----------|-10-9--10-9-----------s---|
B|-s---10-12-|------------12-10-10--12----|-s---10-12-|------------12-10-10--\12-|
G|-\11-------|-------------------------11-|-\11-------|--------------------------|
D|-----------|----------------------------|-----------|--------------------------|
A|-----------|----------------------------|-----------|--------------------------|
E|-----------|----------------------------|-----------|--------------------------|


00:28    h   h          h p p          s             s                  h p        h p 
e|-5----0-2-2-3~~~~~-|-2-3-2-0---s--10-\-12~~~~~-|-12\14-12-10--7--5-|-2-3-2---0--0-2-0-|
B|---3---------------|----------3\---------------|-------------------|-------3----------|
G|-------------------|---------------------------|-------------------|------------------|
D|-------------------|---------------------------|-------------------|------------------|
A|-------------------|---------------------------|-------------------|------------------|
E|-------------------|---------------------------|-------------------|------------------|

00:41   h   s        h p p          s             s                  h p        h p   s
e|--s--0-2-2\3~~~-|-2-3-2-0---s--10-\-12~~~~~-|-12\14-12-10--7--5-|-2-3-2---0--0-2-0-3\5-3~~~-|-0-----0---|
B|-2\3------------|----------3\---------------|-------------------|-------3-------------------|---3-----3-|
G|----------------|---------------------------|-------------------|---------------------------|-----------|
D|----------------|---------------------------|-------------------|---------------------------|-----------|
A|----------------|---------------------------|-------------------|---------------------------|-----------|
E|----------------|---------------------------|-------------------|---------------------------|-----------|

00:59              h  p
e|-----------10-|-9-10-9----------|-14-12-10-9-|-------12-17--16-14-16--14-12-14--12-------|
B|--------10----|--------12-10----|------------|----14-------------------------------14-12-|
G|-s---11-------|--------------11-|------------|-14----------------------------------------|
D|-\12----------|-----------------|------------|-------------------------------------------|
A|--------------|-----------------|------------|-------------------------------------------|
E|--------------|-----------------|------------|-------------------------------------------|


  
01:11  
  GUITAR 1             p                                         p            h
e|-s---12-14-|-17-16-17-16-14-12-12--14----|-s---12-14-|-17-16-17-16-14-12-12--14-|
B|-\14-------|--------------------------14-|-\14-------|--------------------------|
G|-----------|-----------------------------|-----------|--------------------------|
D|-----------|-----------------------------|-----------|--------------------------|
A|-----------|-----------------------------|-----------|--------------------------|
E|-----------|-----------------------------|-----------|--------------------------|
 |                                                                                |
 |GUITAR 2            p                                         p                 |
e|-----------|-5--4--5-4-------------------|-----------|-5--4--5-4------------s---|
B|-s---5--7--|-------------7--5--5---7-----|-s---5--7--|-------------7--5--5--\-7-|
G|-\6--------|--------------------------6--|-\6--------|--------------------------|
D|-----------|-----------------------------|-----------|--------------------------|
A|-----------|-----------------------------|-----------|--------------------------|
E|-----------|-----------------------------|-----------|--------------------------|


  GUITAR 1               p                                 h                       p 
e|---s---12-14-|-17-16-17-16-14-12-12--14---h---|-s---12-12-14-|-14-12-----------10-9----------|
B|-12\14-------|--------------------------12-14-|-\14----------|-------12--10-12------12-10----|
G|-------------|--------------------------------|--------------|----------------------------11-|
D|-------------|--------------------------------|--------------|-------------------------------|
A|-------------|--------------------------------|--------------|-------------------------------|
E|-------------|--------------------------------|--------------|-------------------------------|
 |                                                                                             |
 |GUITAR 2              p                                                                      |
e|-------------|-5--4--5-4----------------------|--------------|-------------------------------|
B|-s---5--7----|-------------7--5--5---7--------|-s----5--7----|-7--5-------------s------------|
G|-\6----------|--------------------------6-----|-\6-----------|-------4---2--4--7\6--4--2-----|
D|-------------|--------------------------------|--------------|----------------------------4--|
A|-------------|--------------------------------|--------------|-------------------------------|
E|-------------|--------------------------------|--------------|-------------------------------|


01:39    h   h          h p p          s             s      p            h p        h p                 
e|-5----0-2-2-3~~~~~-|-2-3-2-0---s--10-\-12~~~~~-|-12\14--12-10--7--5-|-2-3-2---0--0-2-0-|
B|---3---------------|----------3\---------------|--------------------|-------3----------|
G|-------------------|---------------------------|--------------------|------------------|
D|-------------------|---------------------------|--------------------|------------------|
A|-------------------|---------------------------|--------------------|------------------|
E|-------------------|---------------------------|--------------------|------------------|

        h   s        h p p          s             s     p                      p 
e|--s--0-2-2\3~~~-|-2-3-2-0---s--10-\-12~~~~~-|-12\14-12-10--5--7-|-2----s--|-2-0--------|
B|-2\3------------|----------3\---------------|-------------------|---3-3\5-|-----3~~~~~-|
G|----------------|---------------------------|-------------------|---------|------------|
D|----------------|---------------------------|-------------------|---------|------------|
A|----------------|---------------------------|-------------------|---------|------------|
E|----------------|---------------------------|-------------------|---------|------------|



ENJOY.............
Добавлено: 23.09.2015
Другие материалы по этой песне:
  • Аккорды и текст

Страница создана 23.09.2015
http://primanota.ru/misc-soundtrack/braveheart-main-theme-chords.htm
Привет, Гость.
Предлагаем пройти революционный курс по гитаре.
Подарок от PrimaNota.Ru, забирай!