PrimaNota.ru - самый крупный в мире бесплатный архив песенных текстов, аккордов, табулатур и нот


Misc Computer Games - Sims 3 - Skill Level 5 - таба, видео

Регистрация Запомнить меня
Войти через:  Facebook Google Twitter Vk Yandex Mail.ru

Misc Computer Games - Sims 3 - Skill Level 5 - таба, видео

Печатать
Просмотров: 82
Уроки эстрадного вокала в Санкт-Петербурге
Tuning: Standard

e|----------------|-----0---0-0---0|---0-0-----0-0-0|-----0---0-0---0|
B|----------------|-----1---1-1---0|---1-1-----1-1-1|-----1---1-1---1|
G|----------------|-----2---2-2---2|---2-2-----2-2-2|-----0---0-0---0|
D|-------0-2-0----|-----2---2-2---2|---2-2-----2-2-2|-----2---2-2---2|
A|---0-3-------3-0|-----0---0-0---0|---0-0-----0-0-0|-----3---3-3---3|
E|-3--------------|----------------|----------------|----------------|

e|---0-0----------|-----0---0-0---0|---0-0-----0-0-0|-----0---0-0---0|
B|---0-0----------|-----1---1-1---0|---1-1-----1-1-1|-----1---1-1---1|
G|---0-0----------|-----2---2-2---2|---2-2-----2-2-2|-----0---0-0---0|
D|---2-2----------|-----2---2-2---2|---2-2-----2-2-2|-----2---2-2---2|
A|---2-2---0-2-0--|-0---0---0-0---0|---0-0-----0-0-0|-----3---3-3---3|
E|---------------3|----------------|----------------|----------------|

e|---0-0----------|-----1---1-1---1|---1-1----------|-----0---0-0---0|
B|---0-0----------|-----3---3-3---3|---3-3----------|-----1---1-1---0|
G|---0-0----------|-----2---2-2---2|---2-2----------|-----2---2-2---2|
D|---2-2---0-2-0--|-----0---0-0---0|---0-0---0-2-0--|-----2---2-2---2|
A|---2-2---------3|----------------|---------------3|-0---0---0-0---0|
E|----------------|-1--------------|----------------|----------------|

e|---0-0-----0-0-0|-----0---0-0---0|---0-0----------|-----0---0-0---0|
B|---1-1-----1-1-1|-----1---1-1---1|---0-0----------|-----1---1-1---1|
G|---2-2-----2-2-2|-----0---0-0---0|---0-0----------|-----2---2-2---2|
D|---2-2-----2-2-2|-----2---2-2---2|---2-2----------|-----2---2-2---2|
A|---0-0-----0-0-0|-----3---3-3---3|---2-2---0-2-0--|-0---0---0-0---0|
E|----------------|----------------|---------------3|----------------|

e|---0-0-----0-0-0|-0-0---0---0-0--|-0---0-0---0-0-0|-0-2---2---2-2-2|
B|---1-1-----1-1-1|-0-1---1---1-1--|-1---1-1---1-1-1|-0-3---3---3-3-3|
G|---2-2-----2-2-2|-0-2---2---2-2--|-0---0-0---0-0-0|-0-2---2---2-2-2|
D|---2-2-----2-2-2|-0-2---2---2-2--|-2---2-2---2-2-2|-0-0---0---0-0-0|
A|---0-0-----0-0-0|-0-0---0---0-0--|-3---3-3---3-3-3|----------------|
E|----------------|----------------|----------------|----------------|

e|-3---3-3-2---2-2|-3-3---3---3-3-3|-0---0-0-0---0--|0--0--0--0--0-0-0|
B|-3---3-3-3---3-3|-3-3---3---3-3-3|-1---1-1-1---1--|0--1--1--1--0-1-1|
G|-2---2-2-2---2-2|-0-0---0---0-0-0|-0---0-0-0---0--|0--2--2--2--0-2-2|
D|-0---0-0-0---0-0|-0-0---0---0-0-0|-2---2-2-2---2--|2--2--2--2--0-2-2|
A|----------------|-2-2---2---2-2-2|-3---3-3-3---3--|2--0--0--0--0-0-0|
E|----------------|-3-3---3---3-3-3|----------------|-----------------|



Добавлено: 15.04.2016
Другие материалы по этой песне:
  • Аккорды и текст

Страница создана 15.04.2016
http://primanota.ru/misc-computer-games/sims-3-skill-level-5-chords.htm
Привет, Гость.
Предлагаем пройти революционный курс по гитаре.
Подарок от PrimaNota.Ru, забирай!