PrimaNota.ru - самый крупный в мире бесплатный архив песенных текстов, аккордов, табулатур и нот


Misc Computer Games - Skellige Town 02 - таба, видео

Регистрация Запомнить меня
Войти через:  Facebook Google Twitter Vk Yandex Mail.ru

Misc Computer Games - Skellige Town 02 - таба, видео

Печатать
Просмотров: 127
                                  The Witcher 3 - Skellige Town 02 

Haven't found any tabs here, decided to add.                                

Tuning Drop D

Nylon Guitar
     E  E  E  E  H           E  E  E  E  H           E  E  E  E  Q.     S S  
E||-----------------------|-----------------------|-------------------------|
B||-----------------------|-----------------------|-------------------------|
G||-----------------------|-----------------------|--------------0------0---|
D||--------0--2--3--------|--------0--2--3--------|--------0--2-----------2-|
A||-----0-----------------|-----0-----------------|-----3-------------------|
D||--0--------------------|--0--------------------|--3----------------------|


  E  E  E  E  E  E  E  E     E  E  E  E  H           E  E  E  E  H         
--------------------------|-----------------------|-----------------------|
--------------------------|-----------------------|-----------------------|
-----------------2--------|-----------------------|-----------------------|
--------0--2--3-----3--2--|--------0--2--3--------|--------0--2--3--------|
-----0--------------------|-----0-----------------|-----0-----------------|
--0-----------------------|--0--------------------|--0--------------------|


  E  E  E  E  H           H.           E  E     E  E  E  E  Q    Q     
-----------------------|---------------------|-----------0--1---------|
-----------------------|------------------1--|--3-----3----------3----|
-----------0--2--------|--2------------2-----|-----2--2---------------|
--------3--------------|--2------------------|--0-----------0---------|
-----3-----------------|--0------------------|------------------------|
--3--------------------|---------------------|------------------------|


                            ^        >                                        
  E  E  E  E  Q.     S S    E  E  E  E  E  E  Q       E  E  E  E  Q.     S S  
--0-----------0--------0-|--1--1--0-----0----------|-------------------------|
--1--3--1--3---------3---|--3--------3--------1----|-----------1-----------1-|
--0----------------------|--3--------------0-------|--2--0--2-----2------2---|
--2----------------------|--3----------------------|--0----------------------|
--3----------------------|--------------3----------|-------------------------|
-------------------------|-------------------------|-------------------------|


                                                      ^        >       >     
  E  E  E  E  Q    Q       E  E  E  E  Q    E  S S    E  E  E  E  Q    Q     
-----------0--1---------|--0-----------0---------0-|--1--1--0-----0---------|
--3-----3----------3----|--3--3--1--3----------3---|--3--------3--1----1----|
-----2--2---------------|--0----------------0------|--3-----------2---------|
--0-----------0---------|--2-----------------------|--3---------------------|
------------------------|--3-----------------------|--------------0---------|
------------------------|--------------------------|------------------------|


  Q.     E  Q    E  E      E  E  E   E   E  E  E  E   
-----------------5--8--|--10--------10---------------|
---------1--3----------|------------10--10-----------|
--2--------------------|---------7-------7-----7-----|
--2--------------------|---0--7-------------7-----7--|
--0--------------------|-----------------------------|
-----------------------|-----------------------------|


                                              >                                
  E  E  E  E  E  E  E  E     E  E  E  E  Q    Q        E  E  E  E  Q    E  E   
--8-----------5-----5-----|--5-----3--1--0----------|-------------------5--8--|
-----------5-----5--------|--------------1----1~----|-----------1-------------|
-----5--7--------------5--|-----2-------------------|--2--0--2-----2----------|
--5-----------5-----5-----|--0-----------2----------|--0----------------------|
--------------------------|--------------3----------|-------------------------|
--------------------------|-------------------------|-------------------------|


   E  E  E   E   E  E  E  E     E  E  E  E  E  E  E  E   
--10--------10---------------|--8-----------5-----5-----|
------------10--10-----------|-----------5-----5--------|
---------7-------7-----7-----|-----5--7--------------5--|
---0--7-------------7-----7--|--5-----------5-----5-----|
-----------------------------|--------------------------|
-----------------------------|--------------------------|


  E  E  E  E  E  E  Q       Q.     S S H           E  E  E  E  E  E  E  E   
--5-----3--1--0----------|----------------------|-----------0--1--5--1--0--|
--------3-----------1----|--1--------1-3--------|--------3-----------------|
-----2--------------2----|--2------2---2--------|-----2--------------------|
--0--------------2-------|--2-------------------|--0-----------------------|
--------------0----------|--0-------------------|--------------------------|
-------------------------|----------------------|--------------------------|


  E  E  E  E  E  E  E  E     E  E  E  E  E  E  E  E   
-----------0--1--5--1--0--|-----------0--1-----0-----|
--------3-----------------|--------3--------------3--|
-----2--------------------|-----3-----------2--------|
--0-----------------------|--3-----------------------|
--------------------------|--------------------------|
--------------------------|--------------------------|


  E  E  E  E  E  E  E  E     E  E  E  E  E  E  E  E   
-----------0--1-----0-----|--------------0--3--------|
--------3--------------3--|--------1--3--------3--1--|
-----3-----------2--------|-----0--------------------|
--3-----------------------|--------------------------|
--------------------------|--3-----------------------|
--------------------------|--------------------------|


  E  E  E  E  E  E  E  E     E  E  E  E  E  E  E  E     E  E  E  E  Q    E  E   
--------------0--3--1--0--|--1--0--1--0--1--5--1--0--|--1--0--1--0--1----5--8--|
--------1--3--------1-----|--3-----3-----------------|--3-----3----------------|
-----0--------------0-----|-----2--------------------|-----2-------------------|
--------------------------|--0-----------------------|--0----------------------|
--3-----------------3-----|--------------------------|-------------------------|
--------------------------|--------------------------|-------------------------|


   E  E  E   E   E  E  E  E     E  E  E  E  E  E  E  E   
--10--------10---------------|--8-----------5-----5-----|
------------10--10-----------|-----------5-----5--------|
---------7-------7-----7-----|-----5--7--------------5--|
---0--7-------------7-----7--|--5-----------5-----5-----|
-----------------------------|--------------------------|
-----------------------------|--------------------------|


  E  E  E  E  Q    E  E     E  E  E  E  E  E  E  E   
--5-----3--1--0----------|--------------------5--8--|
--------3-----1----1--3--|-----------1--------------|
-----2-------------------|--2--0--2-----2--0--------|
--0-----------2----------|--0-----------------------|
--------------3----------|--------------------------|
-------------------------|--------------------------|


   E  E  E   E   E  E  E  E     E  E  E  E  E  E  E  E   
--10--------10---------------|--8-----------5-----5-----|
------------10--10-----------|--5--------5-----5--------|
---------7-------7-----7-----|-----5--7--------------5--|
---0--7-------------7-----7--|--5-----------5-----5-----|
-----------------------------|--------------------------|
-----------------------------|--------------------------|


  E  E  E  E  E  E  Q       Q.     S S H           E  E  E  E  H         
--5-----3--1--0----------|----------------------|-----------------------|
--------3-----------1----|--1--------1-3--------|-----------------------|
-----2--------------2----|--2------2---2--------|-----------------------|
--0--------------2-------|--2----------0--------|--------0--2--3--------|
--------------0----------|--0-------------------|-----0-----------------|
-------------------------|----------------------|--0--------------------|


  E  E  E  E  H           E  E  E  E  Q.     S S    E  E  E  E  E  E  E  E   
-----------------------|-------------------------|--------------------------|
-----------------------|-------------------------|--------------------------|
-----------------------|--------------0------0---|-----------------2--------|
--------0--2--3--------|--------0--2-----------2-|--------0--2--3-----3--2--|
-----0-----------------|-----3-------------------|-----0--------------------|
--0--------------------|--3----------------------|--0-----------------------|


  W                  
-------------------||
-------------------||
-------------------||
--0----------------||
--0----------------||
--0----------------||




Duration Legend
---------------
W - whole
H - half
Q - quarter
E - 8th
S - 16th
T - 32nd
X - 64th
. - note dotted
|-n-|  - n-tuplets


Tablature Legend
----------------
L - tied note
x - dead note
g - grace note
(n) - ghost note
> - accentuded note
NH - natural harmonic
AH - artificial harmonic
TH - tapped harmonic
SH - semi harmonic
PH - pitch harmonic
h - hammer on
p - pull off
b - bend
br - bendRelease
pb - preBend
pbr - preBendRelease
brb - bendReleaseBend
\n/ - tremolo bar dip
\n - tremolo bar dive
-/n - tremolo bar Release up
/n\ - tremolo bar inverted dip
/n - tremolo bar return
-\n - tremolo bar Release down
S - shift slide
s - legato slide
/ -  slide into from below or out of upwards
\ -  slide into from above or out of downwards
~ - vibrato
W - wide vibrato
tr - trill
TP - tremolo picking
T - tapping
S - slap
P - pop
< - fade in
^ - brush up
v - brush down
Добавлено: 15.04.2016
Другие материалы по этой песне:
  • Аккорды и текст

Страница создана 15.04.2016
http://primanota.ru/misc-computer-games/skellige-town-02-chords.htm
Привет, Гость.
Предлагаем пройти революционный курс по гитаре.
Подарок от PrimaNota.Ru, забирай!