PrimaNota.ru - самый крупный в мире бесплатный архив песенных текстов, аккордов, табулатур и нот


Misc Computer Games - Pokemon - Lavender Town - таба, бас-таба, видео

Регистрация Запомнить меня
Войти через:  Facebook Google Twitter Vk Yandex Mail.ru

Misc Computer Games - Pokemon - Lavender Town - таба, бас-таба, видео

Печатать
Просмотров: 142
Lavender Town Theme - Tab

Tuning: Standard

Note I: This is the old 8-bit theme from Lavender Town in 
Pokémon Blue, Red, Green, and Yellow Versions.  Pretty 
creepy theme.  Parts of guitar II are lower than they should 
be because the pitch goes higher than the guitar can play. 
I've tried to make it sound as best as I can.  The underscores 
just show where both guitars play at once so it doesn't look 
too jumbled.

[Intro plays throughout the entire song]
E|--------7-----------7-----------7-----------7---------------|
B|-----7-----7-----7-----7-----7-----7-----7-----7------------|
G|--5-----------5-----------5-----------5---------------------|
D|------------------------------------------------------------|
A|------------------------------------------------------------|
E|------------------------------------------------------------|

[Or]
E|-------19----------19----------19----------19---------------|
B|----19----19----19----19----19----19----19----19------------|
G|-17----------17----------17----------17---------------------|
D|------------------------------------------------------------|
A|------------------------------------------------------------|
E|------------------------------------------------------------|

_______________________________

[Guitar I]
[Both guitars begin at about 0:08]
E|-------------------7----------------------------------------|
B|-8--8--------8-7--------------------------------------------|
G|-------9--9------9---6--6-----------------------------------|
D|------------------------------------------------------------|
A|------------------------------------------------------------|
E|------------------------------------------------------------|

[Guitar II]
E|------------------------------------------------------------|
B|------------------------------------------------------------|
G|------------------------------------------------------------|
D|------------------------------------------------------------|
A|-7~----5~----------7-----7----------------------------------|
E|-------------8~------8-7------------------------------------|

_______________________________

[Guitar I]
E|-------------7-----7-8--8-----------------------------------|
B|-8--8--7--7----8-7------------------------------------------|
G|------------------------------------------------------------|
D|------------------------------------------------------------|
A|------------------------------------------------------------|
E|------------------------------------------------------------|

[Guitar II]
E|------------------------------------------------------------|
B|------------------------------------------------------------|
G|------------------------------------------------------------|
D|------------------------------------------------------------|
A|-7~----5~----------7-----7----------------------------------|
E|-------------8~------8-7------------------------------------|

_______________________________

[Guitar I]
E|-------------------7----------------------------------------|
B|-8--8--------8-7--------------------------------------------|
G|-------9--9------9---6--6-----------------------------------|
D|------------------------------------------------------------|
A|------------------------------------------------------------|
E|------------------------------------------------------------|

[Guitar II]
E|------------------------------------------------------------|
B|------------------------------------------------------------|
G|------------------------------------------------------------|
D|------------------------------------------------------------|
A|-7~----5~----------7-----7----------------------------------|
E|-------------8~------8-7------------------------------------|

_______________________________

[Guitar I]
E|-------------7-----7----------------------------------------|
B|-8--8--7--7----8-7------------------------------------------|
G|---------------------5--5-----------------------------------|
D|------------------------------------------------------------|
A|------------------------------------------------------------|
E|------------------------------------------------------------|

[Guitar II]
E|------------------------19-------19-------------------------|
B|-12-------12-12------12----20-19----------------------------|
G|----11-12------12-11----------------------4-----------------|
D|--------------------------------------5-4-------------------|
A|------------------------------------7-----------------------|
E|------------------------------------------------------------|

E|------------------------------------------------------------|
B|------------------------------------------------------------|
G|------------------------------------------------------------|
D|------------------------------------------------------------|
A|-7~----5~----------7-----7----------------------------------|
E|-------------8~------8-7------------------------------------|

_______________________________

[Guitar I]
E|-------------------7----------------------------------------|
B|-8--8--------8-7--------------------------------------------|
G|-------9--9------9---6--6-----------------------------------|
D|------------------------------------------------------------|
A|------------------------------------------------------------|
E|------------------------------------------------------------|

[Guitar II]
E|------------------------------------------------------------|
B|------------------------------------------------------------|
G|------------------------------------------------------------|
D|------------------------------------------------------------|
A|-7~----5~----------7-----7----------------------------------|
E|-------------8~------8-7------------------------------------|

_______________________________

[Guitar I]
E|-------------7-----7-8--8-----------------------------------|
B|-8--8--7--7----8-7------------------------------------------|
G|------------------------------------------------------------|
D|------------------------------------------------------------|
A|------------------------------------------------------------|
E|------------------------------------------------------------|

[Guitar II]
E|------------------------------------------------------------|
B|------------------------------------------------------------|
G|------------------------------------------------------------|
D|------------------------------------------------------------|
A|-7~----5~----------7-----7----------------------------------|
E|-------------8~------8-7------------------------------------|

_______________________________

[Guitar I]
E|-------------------7----------------------------------------|
B|-8--8--------8-7--------------------------------------------|
G|-------9--9------9---6--6-----------------------------------|
D|------------------------------------------------------------|
A|------------------------------------------------------------|
E|------------------------------------------------------------|

[Guitar II]
E|------------------------19-------19-------------------------|
B|-12-------12-12------12----20-19----------------------------|
G|----11-12------12-11----------------------4-----------------|
D|--------------------------------------5-4-------------------|
A|------------------------------------7-----------------------|
E|------------------------------------------------------------|

_______________________________

[Guitar I]
E|-------------------7----------------------------------------|
B|-8--8--------8-7--------------------------------------------|
G|-------9--9------9---6--6-----------------------------------|
D|------------------------------------------------------------|
A|------------------------------------------------------------|
E|------------------------------------------------------------|

[Guitar II]
E|------------------------------------------------------------|
B|------------------------------------------------------------|
G|------------------------------------------------------------|
D|------------------------------------------------------------|
A|-7~----5~----------7-----7----------------------------------|
E|-------------8~------8-7------------------------------------|

Note II: After this melody, the same thing pretty much just 
continues on and doesn't really have an end.  It's a small 
bit different every now and then, like when a certain part 
plays, but the tab still has those parts included.

If there's any confusion, questions, or advice on how to 
improve it, please post a comment. Have fun playing, and 
please rate! -Rarrlow
Добавлено: 09.07.2014
Другие материалы по этой песне:

Страница создана 21.08.2013
http://primanota.ru/misc-computer-games/pokemon-lavender-town-chords.htm
Привет, Гость.
Предлагаем пройти революционный курс по гитаре.
Подарок от PrimaNota.Ru, забирай!