PrimaNota.ru - самый крупный в мире бесплатный архив песенных текстов, аккордов, табулатур и нот


Misc Computer Games - Red Dead Revolver - Lo Chiamavano King - бас-таба, видео

Регистрация Запомнить меня
Войти через:  Facebook Google Twitter Vk Yandex Mail.ru

Misc Computer Games - Red Dead Revolver - Lo Chiamavano King - бас-таба, видео

Печатать
Просмотров: 104
-------------------------------------------------------------------------------
              'Lo Chiamavano King' - Red Dead Revolver Theme
                              Original by Luis Bacalov, 
                    featured on 'Red Dead Revolver' by Rockstar
-------------------------------------------------------------------------------

BASS TAB

Tabbed By : Sonofclayton        
e-mail: harry.ajbrennan@gmail.com
Tuning: Standard EADG

Intro/Main riff
G|---------------------------|
D|---------------------------|
A|-0-0-0-0-3-0.----------0~--|
E|---------------0-3-0-3-----|


Verse
G|-------------------------------------5---|
D|-5h7-5-------------------5-------5-7---7-|
A|-------7-5-3-0-3-0-3/5h7---7-5h7---------|
E|-----------------------------------------|

G|-----------------------------------------|
D|-5h7-5-------------------5---------5-7-5-|
A|-------7-5-3-0-3-0-3/5-5---7-5-5-7-------|
E|-----------------------------------------|

G|---------------575---------------5-7-5-------------------|
D|---------5-5-7-----7---------5-5-------7-----------------|
A|-7-7-7-7-------------5-5-5-5-------------3-3-3-3-2-2-2-0-|
E|---------------------------------------------------------|


Intro/Main riff
G|---------------------------|
D|---------------------------|
A|-0-0-0-0-3-0.----------0~--|
E|---------------0-3-0-3-----|


Chorus
G|---------------------------55-----------|
D|-------------353-------5-5----353-------|
A|-----3-3-5-5-----5-5-5------------5-3-5-|
E|-5-5------------------------------------|

G|---------------------------------9-9-7h9p7------|
D|-----5-5-7-7-7-7-7-7/9-7-----9-9-----------97---|
A|-5-5---------------------7-7------------------9-|
E|------------------------------------------------|

G|--------------------------9-9-7-7-----------5-77-7-5--------------------|
D|-7-7-57-7-5-5~-35-3-3~------------9-7-----7----------7-5-7-7------------|
A|------------------------7-------------5-5-------------------------------|
E|-------------------------------------------------------------000000000--|


Verse
G|-------------------------------------5---|
D|-5h7-5-------------------5-------5-7---7-|
A|-------7-5-3-0-3-0-3/5h7---7-5h7---------|
E|-----------------------------------------|

G|-----------------------------------------|
D|-5h7-5-------------------5---------5-7-5-|
A|-------7-5-3-0-3-0-3/5-5---7-5-5-7-------|
E|-----------------------------------------|

G|---------------575---------------5-7-5-------------------|
D|---------5-5-7-----7---------5-5-------7-----------------|
A|-7-7-7-7-------------5-5-5-5-------------3-3-3-3-2-2-2-0-|
E|---------------------------------------------------------|


Intro/Main riff
G|---------------------------|
D|---------------------------|
A|-0-0-0-0-3-0.----------0~--|
E|---------------0-3-0-3-----|


Chorus
G|---------------------------55-----------|
D|-------------353-------5-5----353-------|
A|-----3-3-5-5-----5-5-5------------5-3-5-|
E|-5-5------------------------------------|

G|---------------------------------9-9-7h9p7------|
D|-----5-5-7-7-7-7-7-7/9-7-----9-9-----------97---|
A|-5-5---------------------7-7------------------9-|
E|------------------------------------------------|

G|--------------------------9-9-7-7-----------5-77-7-5--------------------|
D|-7-7-57-7-5-5~-35-3-3~------------9-7-----7----------7-5-7-7------------|
A|------------------------7-------------5-5-------------------------------|
E|-------------------------------------------------------------000000000--|


Verse
G|-------------------------------------5---|
D|-5h7-5-------------------5-------5-7---7-|
A|-------7-5-3-0-3-0-3/5h7---7-5h7---------|
E|-----------------------------------------|

G|-----------------------------------------|
D|-5h7-5-------------------5---------5-7-5-|
A|-------7-5-3-0-3-0-3/5-5---7-5-5-7-------|
E|-----------------------------------------|

G|---------------575---------------5-7-5---|
D|---------5-5-7-----7---------5-5-------7-|
A|-7-7-7-7-------------5-5-5-5-------------|
E|-----------------------------------------|

(Ending of last verse)
G|---------------------------|
D|-10-10~--10-9~-------------|
A|---------------------0~~~~-|
E|---------------------------|

===============================================================================
Добавлено: 29.11.2013
Другие материалы по этой песне:
  • Аккорды и текст

Страница создана 29.11.2013
http://primanota.ru/misc-computer-games/red-dead-revolver-lo-chiamavano-king-chords.htm
Привет, Гость.
Предлагаем пройти революционный курс по гитаре.
Подарок от PrimaNota.Ru, забирай!