PrimaNota.ru - самый крупный в мире бесплатный архив песенных текстов, аккордов, табулатур и нот


Misc Computer Games - Pokemon - Redblue Opening - бас-таба, видео

Регистрация Запомнить меня
Войти через:  Facebook Google Twitter Vk Yandex Mail.ru

Misc Computer Games - Pokemon - Redblue Opening - бас-таба, видео

Печатать
Просмотров: 155
Уроки эстрадного вокала в Санкт-Петербурге
Pokemon Red/Blue - Opening

Tabbed by: XxThreeCheersxX
E-mail: phantomhiveghost@gmail.com


Tuning: Standard

This is the really iconic opening to the first generation of Pokemon games.  Enjoy!

Part I
G|----2----3----2---------2----6-7~-----5~-----|
D|-00---00---00---00-4-00---00-------0~--------|
A|------------------------------------------3~-|
E|---------------------------------------------|

G|----2----3----2---------2----6-7~----7-----|
D|-00---00---00---00-4-00---00---------------|
A|-------------------------------------------|
E|-------------------------------------------|

Part II
G|-------------------|------------------------------------|
D|-------------------|-------0~--------3---210~-----------|
A|-------------------|-----2------3~---------------3-2-3--|
E|-3-3-333-3-3-111112|-3--------------1-------------------|

G|-------------------------------------------|
D|-------0~-------------0~--3-2---0~---------|
A|-----2-----3~---3-2-3---------3-----3-2-3--|
E|-3-----------------------------------------|

G|------------------------------------|
D|-------0~--------3---210~-----------|
A|-----2------3~---------------3-2-3--|
E|-3--------------1-------------------|

G|------------------0~---3-0~---2~---3--------3-4-5---0-0~---5-6----|
D|-------0~---3-2-3---------------------3-3~------------------------|
A|-----2------------------------------------------------------------|
E|-3----------------------------------------------------------------|

G|-7------------5-5-6-7------------5-5-4-0~----|
D|---0-0-0-0-0-0--------0-0-0-0-0-0------------|
A|---------------------------------------------|
E|---------------------------------------------|
Добавлено: 12.06.2013
Другие материалы по этой песне:
  • Аккорды и текст

Страница создана 12.06.2013
http://primanota.ru/misc-computer-games/pokemon-redblue-opening-chords.htm
Привет, Гость.
Предлагаем пройти революционный курс по гитаре.
Подарок от PrimaNota.Ru, забирай!