PrimaNota.ru - самый крупный в мире бесплатный архив песенных текстов, аккордов, табулатур и нот


Misc Computer Games - Pokemon - Red And Blue Theme - бас-таба, видео

Регистрация Запомнить меня
Войти через:  Facebook Google Twitter Vk Yandex Mail.ru

Misc Computer Games - Pokemon - Red And Blue Theme - бас-таба, видео

Печатать
Просмотров: 88
This is the original theme tune from Pokemon red/blue, i know someone else has posted 
their own bass tab of this. but this has got some major differences that ive edited and added:

Intro:
G|----2----3----2---------2----6-7---5--|
D|-00---00---00---00-4-00---00-----0---0|
A|--------------------------------------|
E|--------------------------------------|

G|----2----3---2----5-6-7---7|
D|-00---00--00---00----------|
A|---------------------------|
E|---------------------------|

Main:
G|----------------------|-------------------------|
D|----------------------|-----0-----3-210---------|
A|--5-5--555--5-5-333333|---2-----3--------3-2-3--|
E|----------------------|3------------------------|

G|----------------------|-------------------------|
D|-----0--------0-------|-----0-----3-210---------|
A|---2----3-2-3----3-2-3|---2-----3--------3-2-3--|
E|3---------------------|3------------------------|

G|-------------------|----3----3-4-5----567---5567---555|
D|-----0--------0-3-0|3-----3--------5------------------|
A|---2----3-2-3------|----------------------------------|
E|3------------------|----------------------------------|

G|------------------------|
D|-----0-------3--21---0--|
A|---2-----3--------------|
E|3-----------------------|
Добавлено: 17.08.2013
Другие материалы по этой песне:
  • Аккорды и текст

Страница создана 17.08.2013
http://primanota.ru/misc-computer-games/pokemon-red-and-blue-theme-chords.htm
Привет, Гость.
Предлагаем пройти революционный курс по гитаре.
Подарок от PrimaNota.Ru, забирай!