PrimaNota.ru - самый крупный в мире бесплатный архив песенных текстов, аккордов, табулатур и нот


Misc Computer Games - Super Mario Bros - Underwater Theme - бас-таба, видео

Регистрация Запомнить меня
Войти через:  Facebook Google Twitter Vk Yandex Mail.ru

Misc Computer Games - Super Mario Bros - Underwater Theme - бас-таба, видео

Печатать
Просмотров: 132
Super Mario Bros - Underwater Theme

Tabbed by: Ashy (XxThreeCheersxX)
E-mail: burdickash@gmail.com

Tuning: Standard

Note: this is not the melody; this is the actual bass part.  Happy playing!

(come in at 0:03)
G|----------------|
D|----------------|
A|-10--10~--------|
E|----------------|

G|-------------------------------------------|
D|--------10--------9---------10---------10--|
A|----10---------9--------10------7--10------| x 2
E|-8----------7--------8---------------------|

G|------------------------------------------|
D|---------9--------8----------9---------9--|
A|-----10--------9---------10---------------|
E|-10---------9--------10---------7--10-----|

G|--------------------------------------5---|
D|--------9---------9---------10-----5------|
A|----10------------------10----------------|
E|10---------7--10-----8----------3---------|

G|--------9---------7--------6---------9--|
D|------------------------5---------------|
A|----10--------10-----------------10-----|
E|-8---------7---------6--------9---------|

G|---------10---------10--------10---------10--|
D|---------------------------7-----------------|
A|-----12---------12-------------------10------|
E|-10----------9----------8---------7----------|

G|--------9--------------------------------|
D|--------------5--5--3-3-3----------------|
A|----10-----------------------2-3~--------|
E|-8---------3-----------------------------|


| /  slide up
| \  slide down
| h  hammer-on
| p  pull-off
| ~  vibrato
| +  harmonic
| x  Mute note
===============================================================================
Добавлено: 21.08.2015
Другие материалы по этой песне:
  • Аккорды и текст

Страница создана 21.08.2015
http://primanota.ru/misc-computer-games/super-mario-bros-underwater-theme-chords.htm
Привет, Гость.
Предлагаем пройти революционный курс по гитаре.
Подарок от PrimaNota.Ru, забирай!