PrimaNota.ru - самый крупный в мире бесплатный архив песенных текстов, аккордов, табулатур и нот


Misc Computer Games - Super Mario World - Overworld - таба, бас-таба, видео

Регистрация Запомнить меня
Войти через:  Facebook Google Twitter Vk Yandex Mail.ru

Misc Computer Games - Super Mario World - Overworld - таба, бас-таба, видео

Печатать
Просмотров: 124
-------------------------------------------------------------------------------
                Super Mario World - Overworld Theme
-------------------------------------------------------------------------------
First Tab, so I hope it's okay!

Tuning: Standard

                                    Repeat this section within the bars
e|---------------------------------|-------------------------------------------
B|-3-------------------------------|----------------------1--------------------
G|---3------0--------0--------1-0--|-2----------------------2--0---2-----------
D|----3-2-3-----3--0------3-0------|----3--0-3-3------3-3-------------3--0-3-3-
A|--------------------3------------|---------------3---------------------------
E|---------------------------------|-------------------------------------------
  
   up to here.
e|-----------|----------------------------------------------------------------|
B|-----------|---------------------------------1------------------------------|
G|----3-2-0--|---2--2-----1-1-0-----2--2----1--------2-----------0-2----------|
D|--3------3-|----3--3---------------3--3--------------3--0-3-3--------0-3----|
A|-3---------|----------------------------------------------------------------|
E|-----------|----------------------------------------------------------------|

e|---------------------------------------------------------------------------|
B|-1-3-1-3-1-------------------------------------------------3---------------|
G|--------------3-2-0------------0-2-1-0-----0-2---------0-2---------0-------|
D|--------------------3------0-3----------3-3---------3-3---------3-3--3-----|
A|---------------------------------------------------------------------------|
E|---------------------------------------------------------------------------|

After that, you can repeat it as many times as you want. :)

If you have a correction, let me know, and I may edit it in.
Добавлено: 21.08.2015
Другие материалы по этой песне:
  • Аккорды и текст

Страница создана 21.08.2015
http://primanota.ru/misc-computer-games/super-mario-world-overworld-chords.htm
Привет, Гость.
Предлагаем пройти революционный курс по гитаре.
Подарок от PrimaNota.Ru, забирай!