PrimaNota.ru - самый крупный в мире бесплатный архив песенных текстов, аккордов, табулатур и нот


Misc Computer Games - Life Is Strange - Credits - таба, видео

Регистрация Запомнить меня
Войти через:  Facebook Google Twitter Vk Yandex Mail.ru

Misc Computer Games - Life Is Strange - Credits - таба, видео

Печатать
Просмотров: 186
-------------------------------------------------------------------------------
                             Life is Strange Credits - Syd Matters
-------------------------------------------------------------------------------
Tabbed by: Abou_El_Ela
E-mail:

Tuning: Standard

e|-----------------------------------------------------------------------------|
B|----8--7--5/7--7--5\3--3---0-------------8--7--10\3--2--3--3--0--------------|
G|------------------------------2----------------------------------2-----------|
D|-----------------------------------------------------------------------------|
A|-----------------------------------------------------------------------------|
E|-----------------------------------------------------------------------------|

e|-----------------------------------------------------------------------------|
B|---0--3--5--7-----3--5--7---0--3--5--7b---3----------------------------------|
G|---------------2-------------------------------------------------------------|
D|-----------------------------------------------------------------------------|
A|-----------------------------------------------------------------------------|
E|-----------------------------------------------------------------------------|

e|-----------------------------------------------------------------------------|
B|----8----7---5--7--7---5---3---0-----------8----7----10---3---2---3--3--0----|
G|----------------------------------2---------------------------------------2--|
D|-----------------------------------------------------------------------------|
A|----10---9---7--9--9---7---5---2---0-------10---9----12---5---4---5--5--2--0-|
E|-----------------------------------------------------------------------------|

e|-----------------------------------------------------------------------------|
B|----0---3---5---7-------3---5----7---0----3---5---7b---3---------------------|
G|--------------------2--------------------------------------------------------|
D|-----------------------------------------------------------------------------|
A|----2---5---7---9---0---5---7----9---2----5---7---9b---5---------------------|
E|-----------------------------------------------------------------------------|

************************************

| /   slide up
| \   slide down
| h   hammer-on
| p   pull-off
| ~   vibrato
| +   harmonic
| x   Mute note
| b   Bend
| pb  Pre-bend
| br  Bend release
| pbr Pre-bend release
| brb Bend release bend

************************************
Добавлено: 14.09.2015
Другие материалы по этой песне:
  • Аккорды и текст

Страница создана 14.09.2015
http://primanota.ru/misc-computer-games/life-is-strange-credits-chords.htm
Привет, Гость.
Предлагаем пройти революционный курс по гитаре.
Подарок от PrimaNota.Ru, забирай!