PrimaNota.ru - самый крупный в мире бесплатный архив песенных текстов, аккордов, табулатур и нот


Misc Computer Games - Monster Mash Theme - таба, видео

Регистрация Запомнить меня
Войти через:  Facebook Google Twitter Vk Yandex Mail.ru

Misc Computer Games - Monster Mash Theme - таба, видео

Печатать
Просмотров: 56
Song: Monster Mash
Artist: Sandlot Games
Tabbed by: Alnel Vincent T. Alico
Email: alnelextreme@gmail.com

Chords: EADGBe

D       xx0232
Bm      x04432
G       320003
A       x02220


For the intro, play 2x:

e|---------------------------------|
B|---3-----3-0-----0---------------|
G|-------------------0-----0-2---2-|
D|---------------------------------|
A|---------------------------------|
E|---------------------------------|

After that is the main chorus, along which you can strum D, Bm, G then A
using the strumming pattern DOWN, DOWN-UP,UP-DOWN. Do it twice.

Then for the next part, where you can hear "na-nanana-nana...",
just strum the same chords with the pattern DOWN, DOWN-DOWN-UP.

For the part where the monster gets near the villagers, the music will be
one semitone higher. So it will be:

e|---------------------------------|
B|--4-4----------------------------|
G|----------5-5-------------3-3----|
D|------------------6-6------------|
A|---------------------------------|
E|---------------------------------|



Enjoy B-)
-AlnelExtreme-
Добавлено: 14.09.2015
Другие материалы по этой песне:
  • Аккорды и текст

Страница создана 14.09.2015
http://primanota.ru/misc-computer-games/monster-mash-theme-chords.htm
Привет, Гость.
Предлагаем пройти революционный курс по гитаре.
Подарок от PrimaNota.Ru, забирай!