PrimaNota.ru - самый крупный в мире бесплатный архив песенных текстов, аккордов, табулатур и нот


Misc Computer Games - Prince Of Persia 2 - Conflict At The Entrance - таба, видео

Регистрация Запомнить меня
Войти через:  Facebook Google Twitter Vk Yandex Mail.ru

Misc Computer Games - Prince Of Persia 2 - Conflict At The Entrance - таба, видео

Печатать
Просмотров: 101
Prince of Persia 2 OST - Conflict at the Entrance - Acoustic Guitar tabs
Arranged and tabbed by FlashJockey

Video: https://youtu.be/5XZFNqTerIE

contact me for questions, requests or whatever
http://youtube.com/user/FlashJockey91


• Beat : hit the top of the guitar above the strings with the palm of your hand
▬ Snare : hit the strings with your thumb

e:--------------------------|--------------------------|
B:--------------------------|--------------------------|
G:--------------------------|--------------------------|
D:--------------------------|--------------------------|
A:--8--7-----8--7-----8--7--|-----3--3--3--3--2--2--2--| x3
E:--6--5-----6--5-----6--5--|-----1--1--1--1--0--0--0--|
    •     ▬     •     ▬        •     ▬     •     ▬

e:--------------------------|--------------------------|
B:--------------------------|--------------------------|
G:--------------------------|--------------------------|
D:--------------------------|--------------------------|
A:--3--2-----3--2-----3--2--|--3--2--3--5--3--2--3--5--|
E:--1--0-----1--0-----1--0--|--1--0--1--3--1--0--1--3--|
    •     ▬     •     ▬        •     ▬     •     ▬
____________________________________________________________________x2

e:--------------------------|--------------------------|
B:--------------------------|--------------------------|
G:--------------------------|--------------------------|
D:--------------------------|--------------------------|
A:--8--7--------------------|-----------------8-----8--|
E:--6--5--------------------|-----------------6-----6--|
    •     ▬     •     ▬        •     ▬     •     ▬

e:--------------------------|--------------------------|
B:--------------------------|--------------------------|
G:--------------------------|--------------------------|
D:--------------------------|--------------------------|
A:--8--7--------------------|--------------3--2--3-----|
E:--6--5--------------------|--------------1--0--1-----|
    •     ▬     •     ▬        •     ▬     •     ▬

e:--------------------------|--------------------------|
B:--------------------------|--------------------------|
G:--------------------------|--------------------------|
D:--------------------------|--------------------------|
A:--8--7--------------------|--------------------------|
E:--6--5--------------------|--------------------------|
    •     ▬     •     ▬        •     ▬     •  •  ▬

e:--------------------------|--------------------------|
B:--------------------------|--------------------------|
G:--------------------------|--------------------------|
D:--------------------------|--------------------------|
A:--3--2--------------------|--3--2--3--5--3--2--3--5--|
E:--1--0--------------------|--1--0--1--3--1--0--1--3--|
    •     ▬     •     ▬        •     ▬     •     ▬
____________________________________________________________________x2

e:--------------------------|--------------------------|
B:--------------------------|--------------------------|
G:--------------------------|--------------------------|
D:--------------------------|--------------------------| x3
A:--------7--------7-----7--|--------8--------8-----8--| let the A ring
E:--5--5--5--5--5--5--5--5--|--6--6--6--6--6--6--6--6--| at 3rd time
    •     ▬     •     ▬        •     ▬     •     ▬

e:--------------------------|--------------------------|
B:--------------------------|--------------------------|
G:--------------------------|--------------------------|
D:--------7--7--7--7--7--7--|--------8--8--8--8--8--8--|
A:--------7--7--7--7--7--7--|--------8--8--8--8--8--8--|
E:--5--5--5--5--5--5--5--5--|--6--6--6--6--6--6--6--6--|
    •     ▬     •     ▬        •     ▬     •     ▬
____________________________________________________________________

e:--------------------------|--------------------------|
B:--------------------------|--------------------------|
G:--------------------------|--------------------------|
D:--3--3--3--2--2--2--3--3--|--3--2--2--2--xx-xx-xx-x--|
A:--3--3--3--2--2--2--3--3--|--3--2--2--2--xx-xx-xx-x--| x2
E:--1--1--1--0--0--0--1--1--|--1--0--0--0--xx-xx-xx-x--|
    •     ▬     •     ▬        •     ▬

e:--------------------------|--------------------------|
B:--------------------------|--------------------------|
G:--------------------------|--------------------------|
D:--3--3--3--2--2--2--3--3--|--3--2--2--2--2--2--2--2--|
A:--3--3--3--2--2--2--3--3--|--3--2--2--2--2--2--2--2--| x2
E:--1--1--1--0--0--0--1--1--|--1--0--0--0--0--0--0--0--|
    •     ▬     •     ▬        •     ▬     •     ▬
____________________________________________________________________

e:--------------------------|--------------------------|
B:--------------------------|--------------------------|
G:--------------------------|--------------------------|
D:--------------------------|--------------------------|
A:--------------------------|--------------------------| x2
E:--5--5--5--6--6--6--5--5--|--5--6--6--6--5--5--6--6--|
    •     ▬     •     ▬        •     ▬     •     ▬

e:--------------------------|--------------------------|
B:--------------------------|--------------------------|
G:--------------------------|--------------------------|
D:--0--------0--------0-----|-----0--------0-----0-----|
A:--x--------x--------x-----|-----x--------x-----x-----|
E:--5--5--5--6--6--6--5--5--|--5--6--6--6--5--5--6--6--|
    •     ▬     •     ▬        •     ▬     •     ▬

e:--------------------------|--------------------------|
B:--------------------------|--------------------------|
G:--------------------------|--------------------------|
D:--0--0--0--0--0--0--0--0--|--0--0--0--0--0--0--0--0--|
A:--x--x--x--x--x--x--x--x--|--x--x--x--x--x--x--x--x--|
E:--5--5--5--6--6--6--5--5--|--5--6--6--6--5--5--6--6--|
    •     ▬     •     ▬        •     ▬     •     ▬
____________________________________________________________________

e:--------------------------|--------------------------|
B:--------------------------|--------------------------|
G:--------------------------|--------------------------|
D:--------------------------|--------------------------|
A:--4--4--4--5--5--5--7--7--|--7--4--4--4--7--7--5--5--| x2
E:--5--5--5--6--6--6--3--3--|--3--6--6--6--3--3--6--6--|
    •     ▬     •     ▬        •     ▬     •     ▬

e:--------------------------|--------------------------|
B:--------------------------|--------------------------|
G:--------------------------|--------------------------|
D:--7--7--7--8--8--7--5--5--|--5--8--8--7--5--5--8--8--|
A:--7--7--7--8--8--7--5--5--|--5--8--8--7--5--5--8--8--| x2
E:--5--5--5--6--6--5--3--3--|--3--6--6--5--3--3--6--6--|
    •     ▬     •     ▬        •     ▬     •     ▬
____________________________________________________________________

e:--------------------------|--------------------------|
B:--------------------------|--------------------------|
G:--------------------------|--------------------------|
D:--7--------8--------11----|-----12-------14-------15-|
A:--7--------8--------11----|-----12-------14-------15-|
E:--5--------6--------9-----|-----10-------12-------13-|
Добавлено: 14.09.2015
Другие материалы по этой песне:
  • Аккорды и текст

Страница создана 14.09.2015
http://primanota.ru/misc-computer-games/prince-of-persia-2-conflict-at-entrance-chords.htm
Привет, Гость.
Предлагаем пройти революционный курс по гитаре.
Подарок от PrimaNota.Ru, забирай!