PrimaNota.ru - самый крупный в мире бесплатный архив песенных текстов, аккордов, табулатур и нот


Misc Computer Games - Kirbys Dream Land - Float Islands - бас-таба, видео

Регистрация Запомнить меня
Войти через:  Facebook Google Twitter Vk Yandex Mail.ru

Misc Computer Games - Kirbys Dream Land - Float Islands - бас-таба, видео

Печатать
Просмотров: 102
Уроки эстрадного вокала в Санкт-Петербурге
Kirbys Dream Land - Float Islands

Tabbed by: XxThreeCheersxX
E-mail: burdickash@gmail.com

Tuning: Standard

Part I
G|------------------------------------------------------|
D|-----3----3-------5----5-------7----7-------5----5----|
A|---3------------5------------7------------5-----------|
E|-1------1----3-------3---3-5------5---5-3------3----3-|

G|----------------------------------------------5-5--|
D|-----3----3-------5----5-------7----7--5-5-5-------|
A|---3------------5------------7---------------------|
E|-1------1----3-------3---3-5------5----------------|

Part II
G|------------------------------------------|
D|------------------------------------------|
A|-----3----------5---------7---------5-----| x 4
E|-1-1----3--3-3-----3--5-5----3--3-3----3--|

Part III
G|---------------7-------------------5-----|
D|-----------------------------------------|
A|-------------8----8--------------3-------| x 2
E|-6-6----6-6----------5-5----5-5-------5--|

G|---------------10-------------------8------|
D|-------------------------------------------|
A|-------------8-----8--------------6----10--| x 2
E|-9-9----9-9-----------8-8----8-8-----------|

Repeats parts II and III as much as you want!

| /  slide up
| \  slide down
| h  hammer-on
| p  pull-off
| ~  vibrato
| +  harmonic
| x  Mute note
===============================================================================
Добавлено: 15.06.2015
Другие материалы по этой песне:
  • Аккорды и текст

Страница создана 15.06.2015
http://primanota.ru/misc-computer-games/kirbys-dream-land-float-islands-chords.htm
Привет, Гость.
Предлагаем пройти революционный курс по гитаре.
Подарок от PrimaNota.Ru, забирай!