PrimaNota.ru - самый крупный в мире бесплатный архив песенных текстов, аккордов, табулатур и нот


Misc Computer Games - Final Fantasy Vi Opening Sequence - таба, видео

Регистрация Запомнить меня
Войти через:  Facebook Google Twitter Vk Yandex Mail.ru

Misc Computer Games - Final Fantasy Vi Opening Sequence - таба, видео

Печатать
Просмотров: 92
Opening Sequence from Final Fantasy VI (Nobuo Uematsu)

This is my first and possibly only tab. I am an extremely novice guitar 
player and thus this tab should be really easy to understand for guitarists 
just starting out. It^Òs from the orchestrated version of Final Fantasy 
VI^Òs(III) Opening Sequence. For now it^Òs just a basic form of the main theme 
that goes throughout the piece. I am really proud of finding this out as I 
am so new to guitar playing you^Òd probably laugh. I have this theme 
committed to memory and was fiddling around as I usually do until I hit a 
sequence of strings that sounded like what I remembered. I then worked it 
from there to come up with this tab. I always like these video game theme^Òs 
and it is hard
to find guitar tabs about classical pieces that are easy enough to 
understand as a beginner. I encourage you to make a tab of your favorite 
video game theme song.

e:--------0--4--0----------------------------0--4--0--------------------
B:-----4---------------4--2--4--0--------4---------------4--2--4--9-----
G:--6----------------------------------6--------------------------------
D:----------------------------------------------------------------------
A:----------------------------------------------------------------------
E:----------------------------------------------------------------------



e:---------4--7--4------------------------------------------------------
B:-----7---------------7--5--7--3-----6--5--3----6--5--3----------------
G:--9-------------------------------------------------------------------
D:----------------------------------------------------------------------
A:----------------------------------------------------------------------
E:----------------------------------------------------------------------
					         Repeat from beginning


Well there it is, pretty simple eh? There are two other parts to it and as 
soon as I can figure them out I^Òll add them in.

Donald Christensen
lump_truck10@hotmail.com
email me if you think this is pretty good for a newbie

     
Добавлено: 02.06.2013
Другие материалы по этой песне:
  • Аккорды и текст

Страница создана 02.06.2013
http://primanota.ru/misc-computer-games/final-fantasy-vi-opening-sequence-chords.htm
Привет, Гость.
Предлагаем пройти революционный курс по гитаре.
Подарок от PrimaNota.Ru, забирай!