PrimaNota.ru - самый крупный в мире бесплатный архив песенных текстов, аккордов, табулатур и нот


Misc Computer Games - Final Fantasy Vii - таба, видео

Регистрация Запомнить меня
Войти через:  Facebook Google Twitter Vk Yandex Mail.ru

Misc Computer Games - Final Fantasy Vii - таба, видео

Печатать
Просмотров: 130
Sending a Dream Into the Universe
By: Nobuo Uematsu
For Final Fantasy VII
Tabbed by: Adam Beilgard  KuRugger04@aol.com>


Acoustic Guitar (standard tuning)
-----3-----3-----3-----3-----3--1--6--4-----1--3-----|
--------3-----4-----3-----4-----1-----4--4-----3-----|
--5-----------------------------2--------5-----------|
--5-----5-----6-----5-----6-----3-----6--5-----5-----|
--3-----5-----6-----5-----6-----------6--------5-----|
-----------------------------------------------------|

sect.a
----3-1-3--3-5-6--3---|----5-3-5--5-7-8--5-0-|
-1------------------3-|-3--------------------|
----------------------|----------------------|
----------------------|----------------------|
----------------------|----------------------|
----------------------|----------------------|


-5-3-5--7-8--10-11--10-13-11--8-3-|-10--6-3--1-4-3-|
----------------------------------|----------------|
----------------------------------|----------------|
----------------------------------|----------------|
----------------------------------|----------------|
----------------------------------|----------------|


--3-------6-------5--------------------------------|
--4-------6-------5--------------------------------|
--5-(8x)----(4x)----(4x)--------repeat from--------|
--5-------8-------7--------------section a---------|
----------8-------7--------------------------------|
---------------------------------------------------|

A very beautiful song that is easy to learn.  Nobuo Uematsu is one of my      
favorite composers, I definitely recommend finding his music online.
It's shared freely at all his fan pages, as well as on just about any 
good Squaresoft fan page, or even through Audiogalaxy.
The sound will be different from any recordings because he uses
synthesized instruments, but I think this is pretty accurate.
Please e-mail me any corrections, questions or requests; my email is the
same as my IM screen name, so don't be shy.
"God gave rock and roll to you" - Bill and Ted
Adam Beilgard  KuRugger04@aol.com>
OAS, AAS. LLS! > 

     
Добавлено: 04.10.2013
Другие материалы по этой песне:
  • Аккорды и текст

Страница создана 04.10.2013
http://primanota.ru/misc-computer-games/final-fantasy-vii-chords.htm
Привет, Гость.
Предлагаем пройти революционный курс по гитаре.
Подарок от PrimaNota.Ru, забирай!