PrimaNota.ru - самый крупный в мире бесплатный архив песенных текстов, аккордов, табулатур и нот


Misc Computer Games - Final Fantasy Viii - таба, видео

Регистрация Запомнить меня
Войти через:  Facebook Google Twitter Vk Yandex Mail.ru

Misc Computer Games - Final Fantasy Viii - таба, видео

Печатать
Просмотров: 101
#-- File created with Instab - http://www.pconline.com/~smcarey/instab.html 

Author/Artist: Composer of FF8 Soundtrack
Title: Breezy
Album: Final Fantasy VIII
Transcribed by: Ed Arsenault
Email: ed_2118@hotmail.com

This Is From Final Fantasy 8, the city known as
Balamb, it is the soft music background, and i know
this tab is 100% correct.

Explanations:

Tuning:
Normal

Symbols:
P=Pull Off
H=Hammer On
^=Harmonic

Enjoy :)

e|-------2-----2-------2-----2-------0-----0-------3-----3|
B|-----0---0---------0---0---------0---0---------0---0----|
G|---2-------2-----2-------2-----0-------0-----0-------0--|
D|-0-------------0-------------0-------------0------------|
A|--------------------------------------------------------|
E|--------------------------------------------------------|


e|-------2-----2-------2-----2-------0-----0--3-----2-----|
B|-----0---0---------0---0---------0---0--------0-----0---|
G|---2-------2-----2-------2-----0-------0--------0-----0-|
D|-0-------------0-------------0--------------0-----0-----|
A|--------------------------------------------------------|
E|--------------------------------------------------------|


e|-0----------2-----2-------2h3p2-----2-------0-----0-----|
B|---0------2---2---------2-------2---------3---3---------|
G|--------2-------2-----2-----------2-----0-------0-------|
D|-0----0-------------0-----------------0-----------------|
A|--------------------------------------------------------|
E|--------------------------------------------------------|


e|-------3-----3---------2-----2--5-----3-----2-3-----2-----3---0-|
B|---2-0---2-0---2-----2---2--------2-----2-------2-----0-------2-|
G|-------------------2-------2--------2-----2-------2-----0-----2-|
D|-0---------------0--------------0-----0-----0-2-----0-----0---2-|
A|----------------------------------------------------------------|
E|----------------------------------------------------------------|


e|-2-----2------2-5-----5------5-7-----7------7-5-----5------5--|
B|---3------3-------6------6-------8------8-------6------6------|
G|-----2------2-------5------5-------7------7-------5------5----|
D|-0--------------0--------------0--------------0---------------|
A|--------------------------------------------------------------|
E|--------------------------------------------------------------|


e|-2-----2------2-5-----5------5-7-----7------7------12^--------|
B|---3------3-------6------6-------8------8--------------12^----|
G|-----2------2-------5------5-------7------7----12^---------12^|
D|-0--------------0--------------0------------------------------|
A|--------------------------------------------------------------|
E|--------------------------------------------------------------|


e|-------3-----3-5-----3------3-------3-----3-5-----3------3----|
B|-----3---3-------3------3---------3---3-------3------3--------|
G|---4-------4-------4------4-----3-------3-------3------3------|
D|-0-------------0--------------0-------------0-----------------|
A|--------------------------------------------------------------|
E|--------------------------------------------------------------|


e|-------2-----2-----2-----2-------0-----0--3-------------------|
B|-----0---0-----0-----0---------3---3------3-------------------|
G|---2-------2-----2-----2-----3-------3----3-------------------|
D|-0-------------------------0--------------0-------------------|
A|--------------------------------------------------------------|
E|--------------------------------------------------------------|
                         And Keep Repeating!

It is best to download or at least hear the song before you play.
     
Добавлено: 29.06.2013
Другие материалы по этой песне:
  • Аккорды и текст

Страница создана 29.06.2013
http://primanota.ru/misc-computer-games/final-fantasy-viii-chords.htm
Привет, Гость.
Предлагаем пройти революционный курс по гитаре.
Подарок от PrimaNota.Ru, забирай!