PrimaNota.ru - самый крупный в мире бесплатный архив песенных текстов, аккордов, табулатур и нот


Misc Computer Games - Final Fantasy Vii Prelude - таба, видео

Регистрация Запомнить меня
Войти через:  Facebook Google Twitter Vk Yandex Mail.ru

Misc Computer Games - Final Fantasy Vii Prelude - таба, видео

Печатать
Просмотров: 96
Уроки эстрадного вокала в Санкт-Петербурге
This is a transcription of Nobuo Uematsu's Prelude from Final Fantasy VII
(standard tuning).
The tab is all my own work.
 
e|------------------------------------------------|
b|------------------------13----------------------|
g|.--------------------12----12-------------------|
D|.-----------10-12-14----------14-12-10----------|
A|---------10----------------------------10-------|
E|-8-10-12----------------------------------12-10-|
 
e|------------------------------------|
b|------------------10----------------|
g|----------------9----9--------------|
D|---------7-9-10--------10-9-7-------|
A|-------7----------------------7-----|
E|-5-7-8--------------------------8-7-|
 
e|------------------------------------------------|
b|------------------------13----------------------|
g|---------------------12----12-------------------|
D|------------10-12-14----------14-12-10----------|
A|---------10----------------------------10-------|
E|-8-10-12----------------------------------12-10-|
 
e|------------------------------------|
b|------------------10----------------|
g|----------------9----9--------------|
D|---------7-9-10--------10-9-7-------|
A|-------7----------------------7-----|
E|-5-7-8--------------------------8-7-|
 
e|------------------------------------------|
b|---------------------10-------------------|
g|---------------10-12----12-10-------------|
D|----------7-10----------------10-7--------|
A|-----8-10--------------------------10-8---|
E|-5-8------------------------------------8-|
 
e|----------------------------------------------|
b|-----------------------12---------------------|
g|-----------------12-14----14-12---------------|
D|------------9-12----------------12-9----------|
A|------10-12--------------------------12-10----|
E|-7-10--------------------------------------10-|
 
e|---------------------------------------|
b|--------------------9------------------|
g|---------------8-12---12-8-------------|
D|----------6-10-------------10-6--------|
A|-----6-10-----------------------10-6---|
E|-4-8---------------------------------8-|
 
e|--------------------------------------------|
b|----------------------11--------------------|
g|----------------10-14----14-10-------------.|
D|-----------8-12----------------12-8--------.|
A|------8-12--------------------------12-8----|
E|-6-10------------------------------------10-|
 
Repeat from start.
 
 
Note: This version of the theme only covers two octaves (per section),
whereas the original covers 4. If you want to play the whole version you
need to play the following (just ascending part of first line tabbed):
 
                             /^^^^^^^^^^^^^^^^^^^^^^\
---------------------------15--------15-20-15--------
-------------------13-15-17--13-15-17--------17-15-13
-----------------12----------------------------------
---------10-12-14------------------------------------etc
-------10--------------------------------------------
8-10-12----------------------------------------------
 
with the parts within /^^^\ played one octave higher. This can be
accomplished by using an octave pedal, or by playing those notes with
pinched harmonics (pinching half way between the fret you are holding and
the bridge).
 
If anyone would like me to tab the full version (with pinched harmonics
and overlying melody), or if anyone has any comments or questions please
email me.
 
Keith Burton
keef_da_beef@hotmail.com
     
Добавлено: 28.11.2013
Другие материалы по этой песне:
  • Аккорды и текст

Страница создана 28.11.2013
http://primanota.ru/misc-computer-games/final-fantasy-vii-prelude-chords.htm
Привет, Гость.
Предлагаем пройти революционный курс по гитаре.
Подарок от PrimaNota.Ru, забирай!