PrimaNota.ru - самый крупный в мире бесплатный архив песенных текстов, аккордов, табулатур и нот


Misc Computer Games - Legend Of Zelda - Overworld Theme - бас-таба, видео

Регистрация Запомнить меня
Войти через:  Facebook Google Twitter Vk Yandex Mail.ru

Misc Computer Games - Legend Of Zelda - Overworld Theme - бас-таба, видео

Печатать
Просмотров: 86
Zelda - Overworld Theme

Tabbed by: Ashy (XxThreeCheersxX)
E-mail: burdickash@gmail.com

Tuning: Half-Step Down

Note: This is for the rhythm, not the melody, and there's a lot of triplets.  Happy playing!

(And yes, if you want to play it accurately, you have to tune down a half step)

Gb|----------------------------------------------------------------------------------------|
Db|----------------------------------------------------------------------------------------|
Ab|----------------------------------------------------------------------------------------|
Eb|-7----7-7-7-7----7-7-7-5----5-5-5-5----5-5-5-3----3-3-3-3----3-3-3-2----2----2----4--6--|

Gb|-------------------------------------------------------------------------------------|
Db|-------------------------------------------------------------------------------------|
Ab|----------------------------------------------------------------5----5-5-3-5----5----|
Eb|-7----7-7-5-7----7----5----5-5-3-5----5----3----3-3-1-3----3-------------------------|

Gb|----------------------------------------------------------------------------------------|
Db|----------------------------------------------------------------------------------------|
Ab|-3----3-3-2-3----3-3-3-2----2-2-0-2----2-2-2-4----4-4-2-4----4-4-4----------------------|
Eb|-------------------------------------------------------------------2----2----2----4--6--|

Gb|-------------------------------------------------------------------------------------|
Db|-------------------------------------------------------------------------------------|
Ab|-------------------------------------------------------------------------------------|
Eb|-7----7-7-5-7----7----5----5-5-3-5----5----3----3-3-1-3----3----2----2-2-0-2----2----|

Gb|---------4-7-10--------11-------------------|
Db|-----0-3------------------------------------|
Ab|---2----------------------------------------| x 2
Eb|-1---------------------------2-2-2-2--------|

Gb|----------------------------------------------------------------------------------------|
Db|----------------------------------------------------------------------------------------|
Ab|-3----3-3-2-3----3-3-3-2----2-2-0-2----2-2-2-4----4-4-2-4----4-4-4----------------------|
Eb|-------------------------------------------------------------------2----2----2----4--6--|

| /  slide up
| \  slide down
| h  hammer-on
| p  pull-off
| ~  vibrato
| +  harmonic
| x  Mute note
===============================================================================
Добавлено: 21.08.2015
Другие материалы по этой песне:

Страница создана 21.08.2015
http://primanota.ru/misc-computer-games/legend-of-zelda-overworld-theme-chords.htm
Привет, Гость.
Предлагаем пройти революционный курс по гитаре.
Подарок от PrimaNota.Ru, забирай!