PrimaNota.ru - самый крупный в мире бесплатный архив песенных текстов, аккордов, табулатур и нот


Misc Computer Games - Commandos Beyond The Call Of Duty - Main Theme - таба, видео

Регистрация Запомнить меня
Войти через:  Facebook Google Twitter Vk Yandex Mail.ru

Misc Computer Games - Commandos Beyond The Call Of Duty - Main Theme - таба, видео

Печатать
Просмотров: 101
Уроки эстрадного вокала в Санкт-Петербурге
-------------------------------------------------------------------------------
                COMMANDOS BEYOND THE CALL OF DUTY THEME - Misc Computer Games
-------------------------------------------------------------------------------
Tabbed by: Narfu
E-mail:

Tuning:

e|---------------------------------------------------------------------------|
B|---------------------------------------------------------------------------|
G|-------------------5-------------------------------9--7~-------------------|
D|----------------5-----5--7--------7--5-------------------------------------|
A|-----3--5--5/7--------------------------3--5--5\7--------------------------|
E|---------------------------------------------------------------------------|

e|---------------------------------------------------------------------------|
B|---------------------------------------------------------------------------|
G|-----5--7--7/9--9\7--5-----------------------------------------------------|
D|------------------------5--7------7--9--10--9--7---------------------------|
A|--------------------------------------------------5--7---------------------|
E|---------------------------------------------------------------------------|


e|---------------------------------------------------------------------------|
B|---------------------------------------------------------------------------|
G|---------------------------------------------------------------------------|
D|-----10--9--7--3--7--10--5--------10--9--7--3--7--9--10--------------------|
A|---------------------------------------------------------------------------|
E|---------------------------------------------------------------------------|

e|---------------------------------------------------------------------------|
B|---------------------------------------------------------------------------|
G|-------------------------12------------------------------------------------|
D|-----10--12--14--10--14------12--------10--9--7--3--7--9--10~--------------|
A|---------------------------------------------------------------------------|
E|---------------------------------------------------------------------------|


************************************

| /   slide up
| \   slide down
| ~   vibrato

************************************
Добавлено: 16.07.2015
Другие материалы по этой песне:
  • Аккорды и текст

Страница создана 16.07.2015
http://primanota.ru/misc-computer-games/commandos-beyond-call-of-duty-main-theme-chords.htm
Привет, Гость.
Предлагаем пройти революционный курс по гитаре.
Подарок от PrimaNota.Ru, забирай!