PrimaNota.ru - самый крупный в мире бесплатный архив песенных текстов, аккордов, табулатур и нот


Misc Computer Games - Legend Of Zelda - Secret - таба, видео

Регистрация Запомнить меня
Войти через:  Facebook Google Twitter Vk Yandex Mail.ru

Misc Computer Games - Legend Of Zelda - Secret - таба, видео

Печатать
Просмотров: 96
-------------------------------------------------------------------------------
                             Secret - Legend of Zelda
-------------------------------------------------------------------------------
Tabbed by: jamesysaurusx

Tuning: Standard


e|----------------8---|
B|--8p7---------9-----|
G|------8-----9-------|
D|--------7\6---------|
A|--------------------|
E|--------------------|

Alternatively (octave higher):

e|--15p14-------------16-20---|
B|--------16-------17---------|
G|-----------14\13------------|
D|----------------------------|
A|----------------------------|
E|----------------------------|




************************************

| /   slide up
| \   slide down
| h   hammer-on
| p   pull-off
| ~   vibrato
| +   harmonic
| x   Mute note
| b   Bend
| pb  Pre-bend
| br  Bend release
| pbr Pre-bend release
| brb Bend release bend

************************************
Добавлено: 04.09.2015
Другие материалы по этой песне:

Страница создана 16.07.2015
http://primanota.ru/misc-computer-games/legend-of-zelda-secret-chords.htm
Привет, Гость.
Предлагаем пройти революционный курс по гитаре.
Подарок от PrimaNota.Ru, забирай!