PrimaNota.ru - самый крупный в мире бесплатный архив песенных текстов, аккордов, табулатур и нот


Misc Computer Games - Assassins Creed Unity - Unity - таба, видео

Регистрация Запомнить меня
Войти через:  Facebook Google Twitter Vk Yandex Mail.ru

Misc Computer Games - Assassins Creed Unity - Unity - таба, видео

Печатать
Просмотров: 196
-------------------------------------------------------------------------------
                             UNITY - Assassin's Creed Unity
-------------------------------------------------------------------------------
Tabbed by:Kevin Kamal.GN
E-mail: kevinkamal00@yahoo.com

Tuning:standart
this song is supposed to be played on a violin

btw, i suggest you to listen to the song first before you try this tab.

Guitar 1 
e|---------------------------------------------------------------------------|
B|---------------------------------------------------------------------------|
G|---------------------------------------------------------------------------|
D|-----------------------------------12-14-15---16---------------------------|
A|-5-8-10-12---5-8-10-8----5-8-10-12-----------------------------------------|
E|---------------------------------------------------------------------------|

-------------------------------------------------------------------------------------------

Guitar 2  repeat x16
e|---------------------------------------------------------------------------|
B|---------------------------------------------------------------------------|
G|---------------------------------------------------------------------------|
D|-9-----9-----11----11-----12-----------------------------------------------|
A|--9-9---9-9----9-9---9-13---9-9--11-12-14----------------------------------|
E|---------------------------------------------------------------------------|

guitar 1 (start after guitar 2 repeated x2)
e|---------------------------------------------------------------------------|
B|---------------------------------------------------------------------------|
G|---------------------------------------------------------------------------|
D|---9-----------------9----------------12------12-10--10--9-----------------|
A|-7---6-7-9---10----7---6-7-12-14---10----9-10--------------7-6-------------|
E|---------------------------------------------------------------------------|

e|---------------------------------------------------------------------------|
B|---12----------------12-----------------15-------15-13-13--12--------------|
G|-9----8-9-11-12----9----8-9-14-16----12----11-12--------------8------------|
D|---------------------------------------------------------------------------|
A|---------------------------------------------------------------------------|
E|---------------------------------------------------------------------------|

-------------------------------------------------------------------------------------------

guitar 1
e|---------------------------------------------------------------------------|
B|---------------------------------------------------------------------------|
G|----------------------------------------------------14-----------------14--|
D|-3-7-9-9-7-10-12---3-7-9-9-7-10-12---3-7-9-9-7-10-12----3-7-9-9-7-10-12----|
A|---------------------------------------------------------------------------|
E|---------------------------------------------------------------------------|

-------------------------------------------------------------------------------------------
guitar 1
e|---------------------------------------------------------------------------|
B|---------------------------------------------------------------------------|
G|----------------------------------------------------14-----------------14--|
D|-3-7-9-9-7-10-12---3-7-9-9-7-10-12---3-7-9-9-7-10-12----3-7-9-9-7-10-12----|
A|---------------------------------------------------------------------------|
E|---------------------------------------------------------------------------|

guitar 2
e|---------------------------------------------------------------------------|
B|---------------------------------------------------------------------------|
G|14--16-12---------14--16-12---------14--16-12----------14--16-12-----------|
D|---------------------------------------------------------------------------|
A|---------------------------------------------------------------------------|
E|---------------------------------------------------------------------------|

-------------------------------------------------------------------------------------------

guitar 2  x4
e|---------------------------------------------------------------------------|
B|---------------------------------------------------------------------------|
G|-2------4------5-----7-9---------------------------------------------------|
D|---2-2----2-2----2-2-------------------------------------------------------|
A|---------------------------------------------------------------------------|
E|---------------------------------------------------------------------------|

guitar 2  x6
e|---------------------------------------------------------------------------|
B|---------------------------------------------------------------------------|
G|-5------7------8-----10-12-------------------------------------------------|
D|---5-5----5-5----5-5-------------------------------------------------------|
A|---------------------------------------------------------------------------|
E|---------------------------------------------------------------------------|

Guitar 1 (ending)
e|---------------------------------------------------------------------------|
B|---------------------------------------------------------------------------|
G|---------------------------------------------------------------------------|
D|---------------------------------------------------------------------------|
A|-3-6-8-10---3-6-8-6----3---------------------------------------------------|
E|---------------------------------------------------------------------------|


if you have any question you can ask me via KIK: _Kenny_14    or twitter: @kevinkamal1407
Добавлено: 16.07.2015
Другие материалы по этой песне:
  • Аккорды и текст

Страница создана 16.07.2015
http://primanota.ru/misc-computer-games/assassins-creed-unity-unity-chords.htm
Привет, Гость.
Предлагаем пройти революционный курс по гитаре.
Подарок от PrimaNota.Ru, забирай!