PrimaNota.ru - самый крупный в мире бесплатный архив песенных текстов, аккордов, табулатур и нот


Misc Computer Games - Chrono Trigger - To Far Away Times - бас-таба, видео

Регистрация Запомнить меня
Войти через:  Facebook Google Twitter Vk Yandex Mail.ru

Misc Computer Games - Chrono Trigger - To Far Away Times - бас-таба, видео

Печатать
Просмотров: 129
Chrono Trigger - To Far Away Times

Tabbed by: XxThreeCheersxX
E-mail: burdickash@gmail.com

Tuning: Standard

Part I
G|---------------------------------|
D|---------------------------------|
A|-4-4-4-4-4-4-4-4-4-4-4-4-4-4-4-4-| x 8
E|---------------------------------|

Part II
G|-----------------------------------------------------------------|
D|-----------------------------------------------------------------|
A|-4-4-4-4-4-4-4-4-4-4-4-4-3-3-3-3-1-1-1-1-1-1-1-1-1-1-1-1-1-1-1-1-|
E|-----------------------------------------------------------------|

G|---------------------------------|
D|---------------------------------|
A|---------------------------------|
E|-2-2-2-2-2-2-2-2-4-4-4-4-4-4-4-4-|

Part III x 2
G|---------------------------------------------------------------------------------|
D|-----------------3-3-3-3-3-3-3-3-4-4-4-4-4-4-4-4-4-4-4-4-6-6-6-6-8-8-8-8-8-8-8-8-|
A|-4-4-4-4-4-4-4-4-----------------------------------------------------------------|
E|---------------------------------------------------------------------------------|

G|-------------------------------------------------|
D|-------------5-5-6-6-6-6-6-6-6-6-6-6-6-6-6-6-6-6-|
A|-6-6-6-6-6-6-------------------------------------|
E|-------------------------------------------------|

Part IV
G|---------------------------------|
D|-3-3-3-3-3-3-3-3/4-4-4-4-4-4-4-4-|
A|---------------------------------| x 3
E|---------------------------------|

G|------------------------------------------------|
D|-1-1-1-1----------------------------------------|
A|---------2-2-2----------------------------------|
E|---------------4--4-4-4-4-4-4-4-4-4-4-4-4-4-4-4-|

Part II x 2

Part V x 2
G|---------------------------------------------------------------------------------|
D|-----------------------------------------------------------------1-1-1-1-1-1-1-1-|
A|---------------------------------------------------------1-1-1-1-----------------|
E|-6-6-6-6-6-6-6-6-4-4-4-4-4-4-4-4-2-2-2-2-2-2-2-2-1-1-1-1-------------------------|

G|---------------------------------|
D|---------------------------------|
A|---------------------------------|
E|-4-4-4-4-4-4-4-4-4-4-4-4-4-4-4-4-|

Part VI
G|-----------------------------------------------------|
D|-----------------------------------------------------|
A|-----------------------7---------------------------5-|
E|-6~--------6-5~-----------5--4~--------4-3~----------|

G|---------------------------------------------------------------|
D|--------------------------------------------------7------------|
A|-6~--------6-5~--------5----------6~----5~-----------5~--------|
E|-------------------------6~----6-------------------------------|

Part VII - no bass

Happy playing!

| /  slide up
| \  slide down
| h  hammer-on
| p  pull-off
| ~  vibrato
| +  harmonic
| x  Mute note
===============================================================================
Добавлено: 26.04.2015
Другие материалы по этой песне:

Страница создана 21.07.2012
http://primanota.ru/misc-computer-games/chrono-trigger-to-far-away-times-chords.htm
Привет, Гость.
Предлагаем пройти революционный курс по гитаре.
Подарок от PrimaNota.Ru, забирай!