PrimaNota.ru - самый крупный в мире бесплатный архив песенных текстов, аккордов, табулатур и нот


Misc Computer Games - Chrono Trigger - Undersea Palace - бас-таба, видео

Регистрация Запомнить меня
Войти через:  Facebook Google Twitter Vk Yandex Mail.ru

Misc Computer Games - Chrono Trigger - Undersea Palace - бас-таба, видео

Печатать
Просмотров: 183
Уроки эстрадного вокала в Санкт-Петербурге
Chrono Trigger - Undersea Palace

Tabbed by: XxThreeCheersxX
E-mail: burdickash@gmail.com

Tuning: Drop D

Note: this part is a mix of the bass piano and timpani parts.  Enjoy!

Part I
G|-----------------------------------------|
D|-----------------------------------------|
A|-----------------------------------------| x 5
D|-3~--------3--5--6~----6--8~----8~----1--|

Part II
G|-------------------------------------------------------------------------------------------|
D|-------------------------------------------------------------------------------------------|
A|-5----5--5-5----5----5--5-5----4----4--4-4----4----4--4-4----3----3--3-3----3----3--3-3----|
D|-------------------------------------------------------------------------------------------|

Part III
G|-------------------------------|
D|-------------------------------|
A|-2~----3~----2~----5-5-4-4-3-3-| x 4
D|-------------------------------|

End with:
G|---------------------|
D|---------------------|
A|---------------------|
D|-3~------------------|

| /  slide up
| \  slide down
| h  hammer-on
| p  pull-off
| ~  vibrato
| +  harmonic
| x  Mute note
===============================================================================
Добавлено: 08.05.2015
Другие материалы по этой песне:

Страница создана 14.06.2012
http://primanota.ru/misc-computer-games/chrono-trigger-undersea-palace-chords.htm
Привет, Гость.
Предлагаем пройти революционный курс по гитаре.
Подарок от PrimaNota.Ru, забирай!