PrimaNota.ru - самый крупный в мире бесплатный архив песенных текстов, аккордов, табулатур и нот


Misc Computer Games - Chrono Trigger - Wings That Cross Time - бас-таба, видео

Регистрация Запомнить меня
Войти через:  Facebook Google Twitter Vk Yandex Mail.ru

Misc Computer Games - Chrono Trigger - Wings That Cross Time - бас-таба, видео

Печатать
Просмотров: 136
Chrono Trigger - Wings That Cross Time

Tabbed by: XxThreeCheersxX
E-mail: burdickash@gmail.com

Tuning: Standard

Part I
G|-------------------------------------------------------------|
D|-5-5-5-3--3-3-3-1-1-1-0--0-0-0-5-5-5-5--5-5-5-5-5-5-5--5-5-5-|
A|-------------------------------------------------------------|
E|-------------------------------------------------------------|

Part II x 2
G|-----------------------------------------------------------------|
D|-----------------------------------------------------------------|
A|-----------------------------------------------------------------|
E|-3-3-3-3-3-3-3-3-3-3-3-3-3-3-3-3-5-5-5-5-5-5-5-5-5-5-5-5-5-5-5-5-|

G|-----------------------------------------------------------------|
D|---------------------------------1-1-1-1-1-1-1-1-1-1-1-1-1-1-1-1-|
A|-----------------------------------------------------------------|
E|-3-3-3-3-3-3-3-3-3-3-3-3-3-3-3-3---------------------------------|

G|----------------------------------------------------------------|
D|---------------------------------0-0-0-0-0-0-0-1--1-1-1-1-1-1-1-|
A|-1-1-1-1-1-1-1-1-0-0-0-0-0-0-0-0--------------------------------|
E|----------------------------------------------------------------|

G|-------------------------------------------------------------------|
D|-------------------------------------------------------------------|
A|-1-1-1-1-1-1-1-1-3-3-3-3-3-3-3-3-5-5-5-5-5-5-5-5-5-5-5-5-5-5-5-5-5-|
E|-------------------------------------------------------------------|

Part III
G|--------------------------------------------------------------------------------|
D|-------------------------------------------------------1--4--1------------------|
A|----------------6--------------------6-----2---2---2------------2---2---2---4---|
E|-1---1---1---4-----4--1---1---1---4---------------------------------------------|
                                                                                      x 2
G|-----------------3--------------------3------------8---6---8---6-------6---------|
D|-------------1--------------------1----------6--8------------------8------8--6---|
A|-1---1---1-----------1---1-1--1-----------6--------------------------------------|
E|---------------------------------------------------------------------------------|

Happy playing!


| /  slide up
| \  slide down
| h  hammer-on
| p  pull-off
| ~  vibrato
| +  harmonic
| x  Mute note
===============================================================================
Добавлено: 08.05.2015
Другие материалы по этой песне:

Страница создана 06.06.2012
http://primanota.ru/misc-computer-games/chrono-trigger-wings-that-cross-time-chords.htm
Привет, Гость.
Предлагаем пройти революционный курс по гитаре.
Подарок от PrimaNota.Ru, забирай!