PrimaNota.ru - самый крупный в мире бесплатный архив песенных текстов, аккордов, табулатур и нот


Misc Computer Games - Castlevania 2 - Simons Quest The Silence Of The Daylight - таба, бас-таба, видео

Регистрация Запомнить меня
Войти через:  Facebook Google Twitter Vk Yandex Mail.ru

Misc Computer Games - Castlevania 2 - Simons Quest The Silence Of The Daylight - таба, бас-таба, видео

Печатать
Просмотров: 115
Gtr I (D A D G B E) 
Gtr II (E A D G B E) 

  Q=110
  Gtr I
  E S H    +E  +S  S S   E +S  H    +S  S S S S
|----------------------|------------------------|
|----------------------|------------------------|
|-----5----(5)-(5)-5-7-|-5-(5)------------------|
|-8--------------------|-------8----(8)-------5-|
|----------------------|----------------8-7-8---|
|---8------------------|------------------------|
|
| Gtr II
| E S H    +E  +S  S S   E +S  H    +S  S S S S
|----------------------|------------------------|
|-8---6----(6)-(6)-5-6-|-5-(5)------------------|
|----------------------|-------7----(7)-4---4-5-|
|---5------------------|------------------7-----|
|----------------------|------------------------|
|----------------------|------------------------|


  S S S H    +S  S S S S   E +S  H    +S  S S S S
|------------------------|------------------------|
|------------------------|------------------------|
|-------5----(5)-------5-|-5-(5)------------------|
|-8-8------------5-7-8---|-------8----(8)-------5-|
|------------------------|----------------8-7-8---|
|-----8------------------|------------------------|
|
| S S S H    +S  S S S S   E +S  H    +S  S S S S
|------------------------|------------------------|
|-8-8---6----(6)-------5-|-5-(5)------------------|
|------------------5-7---|-------7----(7)-4---4-5-|
|-----5----------8-------|------------------7-----|
|------------------------|------------------------|
|------------------------|------------------------|


  S S  S  H             +E    +S  S S   E +S  E +S  E +S  E +S  E E
|-------------------------------------|-----------------------------|
|-------------------------------------|---------------------------7-|
|-7-6--5------------------------------|-------------------5-(5)-8---|
|---------5-------------(5)---(5)-5-7-|-5-(5)-4-(4)-7-(7)-----------|
|-------------------------------------|-----------------------------|
|-------------------------------------|-----------------------------|
|
| E   +S  E +S  E +S  E +S  E     S S   W
|-------------------------------------|-----------------------------|
|-------------------------------------|-----------------------------|
|-3---(3)-----------------------------|-----------------------------|
|-------------------------------------|-----------------------------|
|---------5-(5)-4-(4)-3-(3)-----------|-----------------------------|
|---------------------------6-----3-5-|-----------------------------|


  S S  S  H             +E    +S  S S   E +S  E +S  E +S  E +S  E E
|-------------------------------------|------------------------------|
|-------------------------------------|---------------------------7--|
|-7-6--5------------------------------|-------------------5-(5)-8----|
|---------5-------------(5)---(5)-5-7-|-5-(5)-4-(4)-7-(7)------------|
|-------------------------------------|------------------------------|
|-------------------------------------|------------------------------|
|
| E   +S  E +S  E +S  E +S  E     S S   W
|-------------------------------------|------------------------------|
|-------------------------------------|------------------------------|
|-3---(3)-----------------------------|------------------------------|
|-------------------------------------|------------------------------|
|---------5-(5)-4-(4)-3-(3)-----------|------------------------------|
|---------------------------6-----3-5-|------------------------------|


  E +S  S +S   S   S  S Q  S S S S   E +S  S +S   S  S  S  Q  Q
|----------------------------------|----------------------------------|
|----------------------------------|--------------------6-------------|
|---------------------5----------7-|-5-(5)-----------5-----8--7-------|
|-7-(7)--------4---7----8----5-8---|--------------7-------------------|
|-------5-(5)--------------5-------|-------8-(8)----------------------|
|----------------------------------|----------------------------------|
|
| Q        S  +S  +S  S Q  S S S S   Q        S  +S  S +S  Q  S S S S
|----------------------------------|--------------------------------5-|
|----------------------------------|------------------------------6---|
|----------5--(5)-(5)-5------------|----------5--(5)-5-(5)------7-----|
|------------------------------3-6-|----------------------------------|
|----------------------------3-----|----------------------------------|
|--------------------------4-------|--------------------------6-------|


  E +S  E  S  S  S  Q  Q    Q  +S  S S S H
|-------------------------|-------------------------------|
|----------------8--6-----|-8--(8)---5-8-7----------------|
|-7-(7)-------7--------8--|--------6----------------------|
|-------5--7--------------|-------------------------------|
|-------------------------|-------------------------------|
|-------------------------|-------------------------------|
|
| E +S  E +S  S +S  Q  Q    Q  +S  S S S S S S S S S S S
|-4-(4)-------------------|-------------------------------|
|-------3-(3)-3-(3)-------|-------------------------------|
|-------------------5-----|------------------5------------|
|----------------------5--|-2--(2)-2-2-2-4-7-----4-7------|
|-------------------------|--------------------6-----3-6--|
|-------------------------|-------------------------------|


  E +S  E +S  H    +E    S  S  S S S S H    +E
|----------------------|------------------------|
|----------------------|-------8----------------|
|-7-(7)-5-(5)----------|-------------7----------|
|-------------8----(8)-|----5-------------------|
|----------------------|-----------5---5----(5)-|
|----------------------|-3-------0--------------|
|
| E +S  E +S  H    +E    S  S  S S S S H    +E
|----------------------|------------------------|
|-8-(8)-6-(6)----------|------13-----7----------|
|-------------7----(7)-|------------------------|
|----------------------|---10------4---5----(5)-|
|----------------------|------------------------|
|----------------------|-8-------2--------------|


  E +S  E +S  H    +E    S S S S S S Q     +S  S S S S S
|----------------------|----------------------------------|
|----------------------|----------------------------------|
|----------------------|-------------------------------7--|
|-5-(5)----------------|----------------------------------|
|-------8-(8)-5----(5)-|-3-3-3-----------------------5----|
|----------------------|-------4-4-4-5-----(5)-5-4-5------|
|
| E +S  E +S  H    +E    S S S S S Q   +S   S  S S S S S
|----------------------|----------------------------------|
|----------------------|----------------------------------|
|----------------------|----------------------------------|
|----------------------|-5-5-5-0-0-0---(0)--0--0-2-0-0----|
|-5-(5)-3-(3)-1----(1)-|-------------------------------1--|
|----------------------|----------------------------------|


Добавлено: 31.05.2015
Другие материалы по этой песне:

Страница создана 31.08.2013
http://primanota.ru/misc-computer-games/castlevania-2-simons-quest-the-silence-of-the-daylight-chords.htm
Привет, Гость.
Предлагаем пройти революционный курс по гитаре.
Подарок от PrimaNota.Ru, забирай!