PrimaNota.ru - самый крупный в мире бесплатный архив песенных текстов, аккордов, табулатур и нот


Misc Computer Games - Metro Last Light - D6 Sixstring - таба

Регистрация Запомнить меня
Войти через:  Facebook Google Twitter Vk Yandex Mail.ru

Misc Computer Games - Metro Last Light - D6 Sixstring - таба

Печатать
Просмотров: 131
||--0---------------|-------------0---|-1---------------|-------------3---|
||o-----1-------3---|-1---------------|-----3-------1---|-0---------------|
||----2---2-----1---|-----0---------0-|---2---2---2---2-|-----0---------0-|
||------------3---3-|---2---2---2-----|-0---------------|---0---0---0-----|
||o-0---------------|-3---------------|---------3-------|-2---------------|
||----------1-------|---------3-------|-----------------|---------1-------|


|-3-----------0---|-1-----------1---|-1---------------|-0-----------1---|
|-----2-----------|-----3-----------|-----0-------3---|-----1-------3---|
|---3---3---2---0-|---2---2---2---2-|---0---0---0---0-|---0---0---1---1-|
|-----------------|-0---------------|-----------------|-----------------|
|---------0-------|---------3-------|---------2-------|-3-------2-------|
|-0---------------|-----------------|-3---------------|-----------------|


|-0---------------|-------------0---|-1-----5-----------|---------------3---|
|-----1-------3---|-1---------------|---3-----6-----1---|-0---------------0-|
|---2---2-----1---|-----0---------0-|-----2-------2---2-|-----0-2h4-0-------|
|-----------3---3-|---2---2---2-----|-0-----------------|---0---------0-----|
|-0---------------|-3---------------|-----------3-------|-2-----------------|
|---------1-------|---------3-------|-------------------|-----------3-------|


|-3-----------0---|-1-----------1---|-1---------------|-0-----------1---|
|-----2-----------|-----3-----------|-----0-------3---|-----1-------3---|
|---3---3---2---0-|---2---2---2---2-|---0---0---0---0-|---0---0---1---1-|
|-----------------|-0---------------|-----------------|-----------------|
|---------0-------|---------3-------|---------2-------|-3-------2-------|
|-0---------------|-----------------|-3---------------|-----------------|


|-0-----------1---|-0-----------1---|-0---------------|
|-----1-------3---|-----1-------3---|-----------------|
|---2---2---1---1-|---2---2---1-1-1-|---2-------------|
|-----------------|-----------------|-----------------|
|-0---------------|-0---------------|-0---------------|
|---------1-------|---------1-------|-----------------|
Добавлено: 21.08.2015
Другие материалы по этой песне:

Страница создана 18.10.2013
http://primanota.ru/misc-computer-games/metro-last-light-d6-sixstring-chords.htm
Привет, Гость.
Предлагаем пройти революционный курс по гитаре.
Подарок от PrimaNota.Ru, забирай!