PrimaNota.ru - самый крупный в мире бесплатный архив песенных текстов, аккордов, табулатур и нот


Misc Computer Games - Assassins Creed Black Flag - Randy Dandy O - таба, видео

Регистрация Запомнить меня
Войти через:  Facebook Google Twitter Vk Yandex Mail.ru

Misc Computer Games - Assassins Creed Black Flag - Randy Dandy O - таба, видео

Печатать
Просмотров: 656
Assassin's Creed Black Flag - Randy Dandy O/Pirate song (from trailer)


Riff A:
|-----------------------------------------|
|---6---6-6---5---6---5-------6-----------|
|-------------------------7-----7---------|
|-----------------------------------7-----|
|-----------------------------------------|
|-----------------------------------------|

Riff B:
|-------------------------|
|---3-----5-----3---1-----|
|---------------------2---|
|-------------------------|
|-------------------------|
|-------------------------|

Riff C:
|----------1-----3-1---1-----------------------------|
|---2-3h---------------------3---2---0---0---0-------|
|----------------------------------------------------|
|----------------------------------------------------|
|------------------------------------------------3---|
|----------------------------------------------------|

Riff D:
|-------------------------------------|
|-------------------------------------|
|-----0---2-----3-2---2---0-----------|
|---3-----------------------3---0-0---|
|-------------------------------------|
|-------------------------------------|

Riff E:
|-------------------------------------------------|
|---6---6-5---5-------------3-----5-----3---1-----|
|---------------7---7-------------------------2---|
|---------------------7---------------------------|
|-------------------------------------------------|
|-------------------------------------------------|



Verse

Riff A: Now we are ready to sail for the Horn,
Riff B: Way, ay, roll an' go!
Riff C: Our boots an' our clothes boys are all in the pawn,
Riff D: Timme rollickin' randy dandy O!


Chorus

Riff E: Heave a pawl, oh, heave away,
Riff B: Way, ay, roll an' go!
Riff C: The anchor's on board an' the cable's all stored,
Riff D: Timme rollickin' randy dandy O!
Добавлено: 21.09.2013
Другие материалы по этой песне:
  • Аккорды и текст

Страница создана 21.09.2013
http://primanota.ru/misc-computer-games/assassins-creed-black-flag-randy-dandy-o-chords.htm
Привет, Гость.
Предлагаем пройти революционный курс по гитаре.
Подарок от PrimaNota.Ru, забирай!