PrimaNota.ru - самый крупный в мире бесплатный архив песенных текстов, аккордов, табулатур и нот


Misc Computer Games - Assassins Creed 3 Theme - таба, видео

Регистрация Запомнить меня
Войти через:  Facebook Google Twitter Vk Yandex Mail.ru

Misc Computer Games - Assassins Creed 3 Theme - таба, видео

Печатать
Просмотров: 2010
Assassins Creed II Theme
°°°°°°°°°°°°°°°°°°°°°°°°

Please note that this tab is based on the cover of MrAsbun.



Capo III

Intro
e--------------0------2-|--------------0---------|
B--------3--------------|--------3-----------3---|
G--4--------------------|--4---------------------|
D-----4-----4-----4-----|-----2-----2-----2------|
A--2--------------------|--0---------------------|
E-----------------------|------------------------|

e--------------0------2-|--------------0---------|
B--------3--------------|--------3-----------3---|
G--4--------------------|--4---------------------|
D-----0-----0-----0-----|-----2-----2-----2------|
A-----------------------|--0---------------------|
E--3--------------------|------------------------|

e--------------0-----2--|--8-----9-----10----9---|
B--0-----3-----0-----3--|--7-----------8---------|
G--0-----4--------------|-----9-----9-----9------|
D-----0-----0-----0-----|------------------------|
A-----------------------|------------------------|
E--3--------------------|--0---------------------|



Verse
e-----3--2-------0---2--|------------------------|
B--0-------0--0---------|--0---------------------|
G----------0--0---------|------4--4--4-----------|
D-----------------------|------5--5--5-----------|
A-----------------------|------------------------|
E--0--------------------|--3---------------------|

e-----2--0-----------0--|------------------------|
B--0-------------3------|--2---------------------|
G----------0--0---------|-----2--2--2------------|
D----------2--2---------|-----2--2--2------------|
A-----------------------|--0---------------------|
E--0--------------------|------------------------|

e-----3--2-------0---2--|--7---------------------|
B--0-------0--0---------|------0--0--0-----------|
G----------0--0---------|------0--0--0-----------|
D-----------------------|------------------------|
A-----------------------|--0---------------------|
E--0--------------------|------------------------|

e--7--10-9-------10--12-|--9---------------------|
B-----------------------|------10--10------------|
G----------9--9---------|-------9---9------------|
D----------7--7---------|------------------------|
A--0--------------------|--9---------------------|
E-----------------------|------------------------|



Interlude (in harmonics)
e-----3--2-----2--0---------|
A-----------------------3---|
D--4--------4--------4------|
G---------------------------|
B---------------------------|
E---------------------------| x2


Chorus
e-----33-22----22-00------------------|
A--00-------00-------00-33------------|
D-------------------------------------|
G-------------------------------------|
B--2--2--2--2--2--2--2--2-------------|
E-------------------------------------|

e-----33-22----22-00------------------|
A--00-------00-------00-33------------|
D-------------------------------------|
G-------------------------------------|
B-------------------------------------|
E--3--3--3--3--3--3--3--3-------------|

e-----33-22----22-00------------------|
A--00-------00-------00-33------------|
D-------------------------------------|
G-------------------------------------|
B-------------------------------------|
E--0--0--0--0--0--0--0--0-------------|

e-----33-22----22-00------------------|
A--00-------00-------00-33------------|
D-------------------------------------|
G-------------------------------------|
B--0--0--0--0--0--0--0--0-------------|
E-------------------------------------|


Verse
e-----3--2-------------0--2-|-------2--0------------|
B--0----------3--------0----|--0----3--3--3---------|
G------------4-4---4--------|-------------4---------|
D-----------4---4-4-4-------|-----------------------|
A----------------2----------|-----------------------|
E--0------------------------|--3--------------------|

e-----2--0----------------0-|-------0---------------|
B--0---------0---0-----3----|--2----2--3--2---------|
G-----------0-0-0-0-0-------|----------4--2---------|
D----------2---2---2--------|-----------------------|
A---------------------------|-----------------------|
E--0------------------------|--0--------------------|

e-----3--2-------------0--2-|--7--------------------|
B--0---------0-----0--------|------0---0---0--------|
G-----------0-0---0-0-------|-----0-0-0-0-0---------|
D----------0---0-0---0------|-----------------------|
A---------------------------|--0-----7---7----------|
E--0------------3-----------|-----------------------|

e-------------------------0-|------0--0--0----------|
B--0-3-2---2-----2-----3----|--2---2--2--2----------|
G---------0-0---0-----------|-----------------------|
D--------0---0-0------------|-----------------------|
A--3----------3-------------|--0--------------------|
E---------------------------|-----------------------|

Chorus
e-----33-22----22-00------------------|
A--00-------00-------00-33------------|
D-------------------------------------|
G-------------------------------------|
B--2--2--2--2--2--2--2--2-------------|
E-------------------------------------|

e-----33-22----22-00------------------|
A--00-------00-------00-33------------|
D-------------------------------------|
G-------------------------------------|
B-------------------------------------|
E--3--3--3--3--3--3--3--3-------------|

e-----33-22----22-00------------------|
A--00-------00-------00-33------------|
D-------------------------------------|
G-------------------------------------|
B-------------------------------------|
E--0--0--0--0--0--0--0--0-------------|

e-----33-22----22-00------------------|
A--00-------00-------00-33------------|
D-------------------------------------|
G-------------------------------------|
B--0--0--0--0--0--0--0--0-------------|
E-------------------------------------|




Repeat chorus but with this melody:

e-----11-00----00-------------|
B-----------------33----11----|
G--22-------22-------22-------|  
D-----------------------------|
A-----------------------------|  Same Bass line
E-----------------------------|


This is it, Enjoy! ;D
Добавлено: 23.02.2014
Другие материалы по этой песне:
  • Аккорды и текст

Страница создана 23.02.2014
http://primanota.ru/misc-computer-games/assassins-creed-3-theme-chords.htm
Привет, Гость.
Предлагаем пройти революционный курс по гитаре.
Подарок от PrimaNota.Ru, забирай!