PrimaNota.ru - самый крупный в мире бесплатный архив песенных текстов, аккордов, табулатур и нот


Misc Computer Games - Sonic Colors - Terminal Velocity Act 1 - аккорды и текст, видео

Регистрация Запомнить меня
Войти через:  Facebook Google Twitter Vk Yandex Mail.ru

Misc Computer Games - Sonic Colors - Terminal Velocity Act 1 - аккорды и текст, видео

Печатать
Просмотров: 90
Sonic Colors - Terminal Velocity Act 1
Misc Computer Games
Intro
0:00-0:11
e|-----------------------------------------------------------------------------------------------------|
B|-----------------------------------------------------------------------------------------------------|
G|-----------------------------------------------------------------------------------------------------|
D|-----------------------------------------------------------------------------------------------------|
A|------------------------------------------3-5-5-5-3--------------------------------------------3-5-3-|
E|5-5-4-3-3-4-5-5-4-3/8----5-5-4-3-3-4-5-55------------5-5-4-3-3-4-5-5-4-3/8----5-5-4-3-3-4-5-55-------|

Chorus
0:11-0:22
e|--15----14---12-12----------12----10---------------------------------------|x2
B|12---12------------15-12/10----10----10/8 8-10-----------------------------|
G|---------------------------------------------------------------------------|
D|---------------------------------------------------------------------------|
A|---------------------------------------------------------------------------|
E|---------------------------------------------------------------------------|

0:22-
Verse 1
e|-------------------------10-------------------------------------------------------------------------------|
B|----------/12-10-12/---12--12-10-12-----------------------------/12-10-12/--------------------------------|
G|-----9-12------------------------------12/14-16--------------10-12-------------------------12-11----------|
D|/9-12--------------------------------14---------14/----/10-12------------------10--10-12/14-----12-10-----|
A|---------------------------------------------------------------------------/12---12-----------------------|
E|----------------------------------------------------------------------------------------------------------|

e|--------------------------10----------------------------------------------------14(bend1HS)----------------|
B|------------/12-10-12/--12--12-10-12---------------------------/12-10-12--/12-15---------------------------|
G|-------10-12---------------------------12/14-16-----------10-12--------------------------------------------|
D|-/10-12------------------------------14---------14/--10-12-------------------------------------------------|
A|-----------------------------------------------------------------------------------------------------------|
E|-----------------------------------------------------------------------------------------------------------|

e|--12----10------------------------------------------------|
B|-10----10----10/8 8-10------------------------------------|
G|----------------------------------------------------------|
D|----------------------------------------------------------|
A|----------------------------------------------------------|
E|----------------------------------------------------------|
Добавлено: 28.06.2015
Другие материалы по этой песне:
  • Аккорды и текст

Страница создана 28.06.2015
http://primanota.ru/misc-computer-games/sonic-colors-terminal-velocity-act-1-chords.htm
Привет, Гость.
Предлагаем пройти революционный курс по гитаре.
Подарок от PrimaNota.Ru, забирай!